Disturbed - Liberate Chords & Tabs

 

Liberate Chords & Tabs

Disturbed Chords & Tabs

Version: 1 Type: Tab 2 ratings
1 star 2 stars 3 stars 4 stars 5 stars
comments

Liberate Tab

   
Tablature by: guitar freak
Song: Liberate
Artist: Disturbed
Tuning: Drop D flat (Db Ab Db Gb Bb Eb)

Intro 1:
|------------------------------------------------------------------------------------------------
|------------------------------------------------------------------------------------------------
|------------------------------------------------------------------------------------------------
|------------------------------------------------------------------------------------------------
|------------------------------------------------------------------------------------------------
|----2-2-2-2-2-2-2-1-1-1-1-1-/9-9-9-9-9-10-10-10-------------------------------

Intro 2/Interlude/Outro:
|-------------------------------------------------------------------------------------------------
|-------------------------------------------------------------------------------------------------
|-------------------------------------------------------------------------------------------------
|--0h2--2-2-2-2----2-2-2-2-2-2-2--0h2--2-2-2-2-2---2-2-2-2-2-2-2-----------  
|--0h2--2-2-2-2----2-2-2-2-2-2-2--0h2--2-2-2-2-2---2-2-2-2-2-2-2-----------
|--0h2--2-2-2-2----2-2-2-2-2-2-2--0h2--2-2-2-2-2---2-2-2-2-2-2-2-----------

do that 4 times, but at the end of the fourth time do a slide from the fifteenth fret down 
on the low Db string:  |---15---|

Verse:(pretty much with the words as far as timing)
|------------------------------------------------------------------------------------------------
|-----------------------------------------------------------------------------------------------
|------------------------------------------------------------------------------------------------
|--0h2---2----2-2---------2-2-2-2-2-2-2-3-3---3-3---8-8---8-8-------------------
|--0h2---2----2-2---------2-2-2-2-2-2-2-3-3---3-3---8-8---8-8-------------------
|--0h2---2----2-2---------2-2-2-2-2-2-2-3-3---3-3---8-8---8-8-------------------

|-----------------------------------------------------------------------------------------------
|-----------------------------------------------------------------------------------------------
|-------------------------------------------------------------------------------------------------
|--0h2---2----2-2--------2-2-2-2-2-2-2-2--0h2---2---2-2--------0h2---0h2-----
|--0h2---2----2-2--------2-2-2-2-2-2-2-2--0h2---2---2-2--------0h2---0h2-----
|--0h2---2----2-2--------2-2-2-2-2-2-2-2--0h2---2---2-2--------0h2---0h2----

|------------------------------------------------------------------------------------------------
|------------------------------------------------------------------------------------------------
|------------------------------------------------------------------------------------------------
|--0h2---2----2-2-------2-2-2-2-2-2-2-3-3---3-3---8-8---8-8----------------------
|--0h2---2----2-2-------2-2-2-2-2-2-2-3-3---3-3---8-8---8-8---------------------
|--0h2---2----2-2-------2-2-2-2-2-2-2-3-3---3-3---8-8---8-8---------------------

|------------------------------------------------------------------------------------------------
|-----------------------------------------------------------------------------------------------
|------------------------------------------------------------------------------------------------
|--0h2---2----2-2-------2-2-2-2-2-2-2---0h2--2---2-2--------2--0-----------------
|--0h2---2----2-2-------2-2-2-2-2-2-2---0h2--2---2-2--------2--0-----------------
|--0h2---2----2-2-------2-2-2-2-2-2-2---0h2--2---2-2--------2--0-----------------
[ Tab from: http://www.guitartabs.cc/tabs/d/disturbed/liberate_tab.html ]
Interlude: (This is mostly just vocal, so play the guitar lightly; just strum these)
|-----------------------------------------------------------------------------------------------
|----------------------------------------------------------------------------------------------
|----------------------------------------------------------------------------------------------
|----2--------2-------0---------7-----------------------------------------------------------
|----2--------2-------0---------7-----------------------------------------------------------
|----2--------2-------0---------7-----------------------------------------------------------

Prechorus:
|------------------------------------------------------------------------------------------------
|------------------------------------------------------------------------------------------------
|------------------------------------------------------------------------------------------------
|----2--2---2-----------2--------------------------------------------------------------------
|----0--0---0---x-x-1-------1---------------------------------------------------------------
|-------------------------------------------------------------------------------------------------

Chorus:
|-------------------------------------------------------------------------------------------------
|------------------------------------------------------------------------------------------------
|------------------------------------------------------------------------------------------------
|----5-----5-5-5-4------4-4-4-4-4--------2----2-2-2-2-----2-2-2-2-----------------
|----3-----3-3-3-3------3-3-3-3-3--------2----2-2-2-2-----2-2-2-2-----------------
|----------------------------------------2----2-2-2-2-----2-2-2-2-----------------

Do that three times, then do this:
|----------------------------------------------------------------------------------------------------
|---------------------------------------------------------------------------------------------------
|----------------------------------------------------------------------------------------------------
|---0-----0-0-0-0------0-0-0-0-----4----4-4-4-4----4-4-4-4----------------------------
|---0-----0-0-0-0------0-0-0-0-----2----2-2-2-2----2-2-2-2---------------------------
|---0-----0-0-0-0------0-0-0-0--------------------------------------------------------------

Then the interlude, then the chorus, then the above part, then this:
|----------------------------------------------------------------------------------------------------------------------
|---------------------------------------------------------------------------------------------------------------------
|-------------------------2-----------------------------7*-----------------------2-------------------------------------
|---2--2--2---------3-----------2--2--2-----------7*---------2--2--2----------3---------2--2--2---------7*------------
|---2--2--2------2--------------2--2--2------7*--------------2--2--2------2-------------2--2--2----7*---------7*------
|---2--2--2---------------------2--2--2----------------------2--2--2--------------------2--2--2----------------------

|---------------------------------------------------------------------------------------------------------------------------
|---------------------------------------------------------------------------------------------------------------------------
|-----------------------2------------------------------7*-------------------------2-----------------------------------------
|---2--2--2--x-x-----3--------2--2--2--x-x--7*-----7*--------2--2--2--x-x-----3--------2--2--2--x-x--7*-------7*-----------
|---2--2--2--x-x--2-----------2--2--2--x-x------7*-----------2--2--2--x-x--2-----------2--2--2--x-x-------7*--------7*-----
|---2--2--2--x-x--------------2--2--2--x-x-------------------2--2--2--x-x--------------2--2--2--x-x------------------------

do that eight times, then the chorus, then the outro

I'm pretty sure most of that is right.  It sounds right, anyways.  Hope you enjoy.  On another note, the
drums in this song are awesome.
Comments