Disturbed - Liberate Chords & Tabs

 

Liberate Chords & Tabs

Disturbed Chords & Tabs

Version: 1 Type: Bass Tab 0 ratings
1 star 2 stars 3 stars 4 stars 5 stars
comments

Liberate Bass Tab

   
Tuning-Bb, Db, Ab, Db, Gb

Intro
Gb------------------------------|
Db------------------------------|  x7
Ab------------------------------|
Db------------------------------|
Bb-0h2--2-2-2-2--2-2-2-0h2-2-2--|

Gb-------------------------|
Db-------------------------|
Ab-------------------------|
Db-------------------------|
Bb-0h2--2-2-2-2--2-2-2-8\--|

Verse
Gb-----------------------------|
Db-----------------------------|
Ab-----------------------------|
Db-0-2-2-0-2--0h2-2-0h2-2-2----|
Bb-----------------------------|

Gb-------------------------------------------------------|
Db-------------------------------------------------------|
Ab-------------------------------------------------------|
Db-2-3-3--3-3/8--8--8-8-8-8-8-0-2-2--0-2--0h2-2-0h2-2-2--|
Bb-------------------------------------------------------|

Gb---------------------------|
Db---------------------------|
Ab---------------------------|
Db-0-2-2-0-2--0h2-2-0h2-2-2--|
Bb---------------------------|

Gb-----------------------------|
Db-----------------------------|
Ab-----------------------------|
Db-0-2-2-0-2--0h2-2-0h2-2-2----|
Bb-----------------------------|

Gb-------------------------------------------------------|
Db-------------------------------------------------------|
Ab-------------------------------------------------------|
Db-2-3-3--3-3/8--8--8-8-8-8-8-0-2-2--0-2--0h2-2-0h2-2-2--|
Bb-------------------------------------------------------|

Gb---------------------|
Db---------------------|
Ab---------------------|
Db-0-2-2-0-2--0h2-2-0--|
Bb---------------------|

Gb------------------------------------------------------------------|
Db------------------------------------------------------------------|
Ab---------------------------------------------2-2-2-2-2-2-2-2-2-2--|
Db-0h2-2-2-2-2-2-2-2-2-2-2-2-2-2-2-1-1-1-1-1-1----------------------|
Bb------------------------------------------------------------------|

Gb--------------------------------------------------------------|
Db--------------------------------------------------------------|
Ab-3-3-3-3-3-3-3-3-3-3-3-3-3-3-3-3------------------------------|
Db---------------------------------5-5-5-5-5-5/9-9-9-9-9-9-9-9--|
Bb--------------------------------------------------------------|

Gb------------------------------------------------------------------|
Db------------------------------------------------------------------|
Ab---------------------------------------------2-2-2-2-2-2-2-2-2-2--|
Db-0h2-2-2-2-2-2-2-2-2-2-2-2-2-2-2-1-1-1-1-1-1----------------------|
Bb------------------------------------------------------------------|

Gb--------------------------------------------------------------|
Db--------------------------------------------------------------|
Ab-3-3-3-3-3-3-3-3-3-3-3-3-3-3-3-3------------------------------|
Db---------------------------------5-5-5-5-5-5/9-9-9-9-9-9-9-9--|
Bb--------------------------------------------------------------|

Gb-----------------------|
Db-----------------------|
Ab------------6----------|
Db-7-7-7----7---7--/15\--|
Bb-----------------------|

Chorus
Gb----------------------------------------------|
Db----------------------------------------------|  x3
Ab----------------------------------------------|
Db-----------------------2-2--2-2--2-2--2-2--2--|
Bb-1-1--1-1--1-1--1-1--1------------------------|

Gb----------------------------------------------|
Db----------------------------------------------|
Ab------------------------2-2--2-2--2-2--2-2----|
Db-0-0--0-0--0-0--0-0--0---------------------5--|
Bb----------------------------------------------|

Gb--------------------------------------------------------|
Db--------------------------------------------------------|
Ab--------------------------------------------------------|
Db-0h2--2-2-2-2--2-2-2-0-2-2-2-0h2--2-2-2--2-2-2-0-2-2-2--|
Bb--------------------------------------------------------|

Gb--------------------------------------------------------|
Db--------------------------------------------------------|
Ab--------------------------------------------------------|
Db-0h2--2-2-2--2-2-2-0-2-2-2-0h2--2-2-2-2--2-2-2-X-X-X-X--|
Bb--------------------------------------------------------|

Verse
Gb-----------------------------|
Db-----------------------------|
Ab-----------------------------|
Db-0-2-2-0-2--0h2-2-0h2-2-2----|
Bb-----------------------------|

Gb-------------------------------------------------------|
Db-------------------------------------------------------|
Ab-------------------------------------------------------|
Db-2-3-3--3-3/8--8--8-8-8-8-8-0-2-2--0-2--0h2-2-0h2-2-2--|
Bb-------------------------------------------------------|
[ Tab from: http://www.guitartabs.cc/tabs/d/disturbed/liberate_btab.html ]
Gb---------------------------|
Db---------------------------|
Ab---------------------------|
Db-0-2-2-0-2--0h2-2-0h2-2-2--|
Bb---------------------------|

Gb-----------------------------|
Db-----------------------------|
Ab-----------------------------|
Db-0-2-2-0-2--0h2-2-0h2-2-2----|
Bb-----------------------------|

Gb-------------------------------------------------------|
Db-------------------------------------------------------|
Ab-------------------------------------------------------|
Db-2-3-3--3-3/8--8--8-8-8-8-8-0-2-2--0-2--0h2-2-0h2-2-2--|
Bb-------------------------------------------------------|

Gb---------------------|
Db---------------------|
Ab---------------------|
Db-0-2-2-0-2--0h2-2-0--|
Bb---------------------|

Gb------------------------------------------------------------------|
Db------------------------------------------------------------------|
Ab---------------------------------------------2-2-2-2-2-2-2-2-2-2--|
Db-0h2-2-2-2-2-2-2-2-2-2-2-2-2-2-2-1-1-1-1-1-1----------------------|
Bb------------------------------------------------------------------|

Gb--------------------------------------------------------------|
Db--------------------------------------------------------------|
Ab-3-3-3-3-3-3-3-3-3-3-3-3-3-3-3-3------------------------------|
Db---------------------------------5-5-5-5-5-5/9-9-9-9-9-9-9-9--|
Bb--------------------------------------------------------------|

Gb------------------------------------------------------------------|
Db------------------------------------------------------------------|
Ab---------------------------------------------2-2-2-2-2-2-2-2-2-2--|
Db-0h2-2-2-2-2-2-2-2-2-2-2-2-2-2-2-1-1-1-1-1-1----------------------|
Bb------------------------------------------------------------------|

Gb--------------------------------------------------------------|
Db--------------------------------------------------------------|
Ab-3-3-3-3-3-3-3-3-3-3-3-3-3-3-3-3------------------------------|
Db---------------------------------5-5-5-5-5-5/9-9-9-9-9-9-9-9--|
Bb--------------------------------------------------------------|

Gb-----------------------|
Db-----------------------|
Ab------------6----------|
Db-7-7-7----7---7--/15\--|
Bb-----------------------|

Waiting...
Gb----------------------------------------------|
Db----------------------------------------------|  x3
Ab----------------------------------------------|
Db-----------------------2-2--2-2--2-2--2-2--2--|
Bb-1-1--1-1--1-1--1-1--1------------------------|

Gb----------------------------------------------|
Db----------------------------------------------|
Ab------------------------2-2--2-2--2-2--2-2----|
Db-0-0--0-0--0-0--0-0--0---------------------5--|
Bb----------------------------------------------|

Gb-----------------|
Db-----------------|  x2
Ab-----------------|
Db-2-2-2----2-2-2--|
Bb-----------------|

Gb-----------------------|
Db-----------------------|  x2
Ab--------2~-------------|
Db-2-2-2------2-2-2--0~--|
Bb-----------------------|

Gb-----------------------|
Db-----------------------|  x2
Ab--------2~-------------|
Db-2-2-2------2-2-2--0~--|
Bb-----------------------|

Gb---------------------------------------------------------------------|
Db---------------------------------------------------------------------|
Ab--------2-2-2-2-------------------------2-2-2-2----------------------|
Db2-2-2-2---------2-2-2-2-0-0-0-0-2-2-2-2---------2-2-2-2-0-0-0--0-0-0-|
Bb---------------------------------------------------------------------|

Gb---------------------|
Db---------------------|
Ab---------------------|
Db------2-2-------2-2--|
Bb-1-1-------1-1-------|

Gb---------------------------------------------------------------------|
Db---------------------------------------------------------------------|
Ab---------------------------------------------------------------------|
Db-----------------------2-2--2-2--2-2--2-2--2--0-0--0-0--0-0--0-0--0--|
Bb-1-1--1-1--1-1--1-1--1-----------------------------------------------|

Gb-----------------------------|
Db-----------------------------|
Ab-2-2--2-2--2-2--2-2----------|
Db--------------------5-5-5-5--|
Bb-----------------------------|

Gb----------------------------------------------------|
Db----------------------------------------------------| x3
Ab----------------------------------------------------|
Db-----------------------2-2--2-2--2-2--2-2--2--------|
Bb-1-1--1-1--1-1--1-1--1------------------------------|

Gb-------------------------------------------------|
Db-------------------------------------------------|
Ab------------------------0h2-0h2-0h2-0h2----------|
Db-0-0--0-0--0-0--0-0--0------------------5-5-5-5--|
Bb-------------------------------------------------|

Outro
Gb------------------------------|
Db------------------------------|  x8
Ab------------------------------|
Db-0h2--2-2-2-2--2-2-2-0h2-2-2--|
Bb------------------------------|

Thanks, please rate it after you learn it.
Comments