Disturbed - Land Of Confusion Chords & Tabs

 

Land Of Confusion Chords & Tabs

Disturbed Chords & Tabs

Version: 1 Type: Tab 0 ratings
1 star 2 stars 3 stars 4 stars 5 stars
comments

Land Of Confusion Tab

Band- Disturbed
Song- Land Of Confusion
Album- Ten Thousand Fists
Tuning- Drop C

Intro
|----------------------------------|
|----------------------------------|
|----------------------------------|
|-5-7-5-5-5-5-7-5--5-7-5-5-5-5-7-5-|
|-5-7-5---5-5-7-5--5-7-5---5-5-7-5-|
|-5-7-5---5-5-7-5--5-7-5---5-5-7-5-|

Verse
|-------------------------------------------------|
|-------------------------------------------------|
|-------------------------------------------------|
|-5-7/--------------------7-9/--------------------|
|-5-7/-5-5--5-5-5-5-5-5-5-7-9/-7-7--7-7-7-7-7-7-7-|
|-5-7/-5-5--5-5-5-5-5-5-5-7-9/-7-7--7-7-7-7-7-7-7-|
P.M.   ...  .............      ...  .............

|------------------------------------------------|
|------------------------------------------------|
|------------------------------------------------|
|-9-11/------------------5-7/--------------------|
|-9-11/-9-9--9-9-9-9-9-9-5-7/-5-5--5-5-5-5-5-5-5-|
|-9-11/-9-9--9-9-9-9-9-9-5-7/-5-5--5-5-5-5-5-5-5-|
P.M.    ...  ...........      ...  .............

Pre-Chorus
|--------------------------------|
|--------------------------------|
|--------------------------------|
|-0--2---5--7---0--2---5--0------|
|-0--2---5--7---0--2---5--0--12/-|
|-0--2---5--7---0--2---5--0--12/-|
[ Tab from: http://www.guitartabs.cc/tabs/d/disturbed/land_of_confusion_tab.html ]
Chorus
|-------------------|
|-------------------|
|-7-7-8-8-----------|
|-x-x-x-x-7-7--3--5-|
|-5-5-6-6-7-7--3--5-|
|---------7-7--3--5-|

Play Intro

Play Verse

Play Pre-Chorus

Play Chorus

Play Intro

Bridge
|------------------------------------|
|------------------------------------|
|------------------------------------|
|------------------------------------|
|-7-9-10-7-9-10-7-9-10-6-7-9-5-7-5-3-|
|------------------------------------|

|-------------------------------------|
|-------------------------------------|
|-------------------------------------|
|-------------------------------------|
|-7-9-10-7-9-10-7-9-10-6-7-9-5-7-5-10-|
|-------------------------------------|

|-------------------------|
|-------------------------|
|-------------------------|
|-5-5-5-4-4-4-7-7-7-9-9-9-|
|-5-5-5-4-4-4-7-7-7-9-9-9-|
|-5-5-5-4-4-4-7-7-7-9-9-9-|

|----------------------------------------|
|----------------------------------------|
|----------------------------------------|
|-7~-------------------------------------|
|-7~--7-7--7-7-7-7-7-7--7-7--7-7-7-7-7-7-|
|-7~--7-7--7-7-7-7-7-7--7-7--7-7-7-7-7-7-|(Play the 7's open after 2 times)
P.M.  ...  ...........  ...  ...........

|----|
|----|
|----|
|-5~-|
|-5~-|
|-5~-|

Play Verse

Play Pre-Chorus

Play Chorus

Play Intro(to end)

That's all.No solo yet,I'll post it when I figure it out)I'll also be posting
Forgiven,I'm Alive,and Sacred Lie soon.Check out my other tabs too(Overburdened,
Just Stop,Guarded,and Stricken.)
Comments