Disturbed - Just Stop Chords & Tabs

 

Just Stop Chords & Tabs

Disturbed Chords & Tabs

Version: 4 Type: Tab 0 ratings
1 star 2 stars 3 stars 4 stars 5 stars
comments

Just Stop Tab

----Just Stop + Disturbed-----

-Tuning is: Drop Db / Drop C#  (Same thing)

------Db Ab Db Gb Bb Eb (low to high)---------

V - Updated October 11/2005.
V2- Updated January 21/2006.

Tabbed By: Jay Logan
Email: Subbliminal@DONTSPAM@hotmail.com 
           -Just remove the 'DONTSPAM of course.


Legend - I suggest looking over it, there are some descriptions, as well as special cases.

 /  - Slide Right (If only 1 number just slide from anywhere towards it left to right)
 \  - Slide left (If only 1 number just slide from anywhere towards it right to left)
 ^  - Bend (5^7= bend the 5 fret until it sounds like 7, or 5^ = quick bend)
(~) - Vibrato (5(~) = Wiggle the string shown)
[5] - Natural Harmonic (Just put your finger lightly over the actually fret)
<5> - Pic Harmonic (Hard to explain, You pick the string for a harmonic while holding the fret shown)
 x  - Mute that string
 . - Palm Mute (Mute the note shown with picking hand palm, the '.' is under the note)
 h  - Hammer On (ie..3h5 = pic the 3rd fret and then hammer your finger into the 5th without picking)
 p  - Pull Off (opposite of hammer on, 5p3 = pic the 5th while holding the 3rd as
well, then pull your finger of the 5th)
(#) - Ghost note (Optional/lighly played note)

NOTE: Dan usually plays another Guitar track over the first one as he is the only
guitar player in the band, so 'guitar 1'
and 'guitar 2' are both really him. SO:

NOTE: Thanks to "dabitup" (@Ultimateguitar) for the correct chorus chord positioning!


Duration Legend
---------------
W - whole
H - half
Q - quarter
E - 8th
S - 16th
T - 32nd
X - 64th
. - note dotted
|-n-|  - n-tuplets




Guitar 1(Top), Guitar 2(Bottom) if connected.


---Intro---

Eb|----------------------------------------------------------------|
Bb|----------------------------------------------------------------|
Gb|----------------------------------------------------------------|
Db|-----------------------------------------------------4p3p0------|
Ab|-0-0--------3h5--0--------5h6---0-0--------3h5-6p5p0------------|
Db|-0-0--0-3h5------0--0-5h7-------0-0--0-3h5-----------------3h5--|
    



Eb|----------------------------------------------------------------|
Bb|----------------------------------------------------------------|
Gb|----------------------------------------------------------------|
Db|----------------------------------------------------------------|
Ab|-0-0--------3h5--0--------5h6---0-0--------3h5-6p5--------------|
Db|-0-0--0-3h5------0--0-5h7-------0-0--0-3h5---------0h3h5-0h3h5--|
    



Eb|----------------------------------------------------------------|
Bb|----------------------------------------------------------------|
Gb|----------------------------------------------------------------| Guitar 1
Db|-----------------------------------------------------4p3p0------|
Ab|-0-0--------3h5--0--------5h6---0-0--------3h5-6p5p0------------|
Db|-0-0--0-3h5------0--0-5h7-------0-0--0-3h5-----------------3h5--|
  {                                                                }
  {                                                                }
  {                                                                }
Eb|----------------------------------------------------------------|
Bb|----------------------------------------------------------------|
Gb|----------------------------------------------------------------|
Db|------------3h5-----------5h6--------------3h5-------4p3p0------| Guitar 2
Ab|-0-0-------------0--------------0-0------------6p5p0------------|
Db|-0-0--0-3h5------0--0-5h7-------0-0--0-3h5-----------------3h5--|
   



Eb|----------------------------------------------------------------|
Bb|----------------------------------------------------------------|
Gb|----------------------------------------------------------------|
Db|----------------------------------------------------------------| Guitar 1
Ab|-0-0--------3h5--0--------5h6---0-0--------3h5-6p5--------------|
Db|-0-0--0-3h5------0--0-5h7-------0-0--0-3h5---------0h3h5-0h3h5--|
  {                                                                }
  {                                                                }
  {                                                                }
Eb|----------------------------------------------------------------|
Bb|----------------------------------------------------------------|
Gb|----------------------------------------------------------------|
Db|------------3h5-----------5h6--------------3h5------------------| Guitar 2
Ab|-0-0-------------0--------------0-0------------6p5--------------|
Db|-0-0--0-3h5------0--0-5h7-------0-0--0-3h5---------0h3h5-0h3h5--|
    




---Verse--- 
x/ slide down into from above


Eb|-------------------------------------------------------------------------|
Bb|-------------------------------------------------------------------------|
Gb|-------------------------------------------------------------------------|
Db|-------------------------------------------------------------------------|
Ab|----0--0---0-0-0-0---0--0---0-0-0-0-0-0--0--0-0-0-0-0--0--3-x-3-x--3-5---|
Db|-x/-0--0---0-0-0-0---0--0---0-0-0-0-0-0--0--0-0-0-0-0--0--3-x-3-x--3-5---|
        .  .   . . . .   .  .   . . . . . .  .  . . . . .  .


Eb|-------------------------------------------------------------------------|
Bb|-------------------------------------------------------------------------|
Gb|-------------------------------------------------------------------------|
Db|-------------------------------------------------------------------------|
Ab|----0--0---0-0-0-0---0--0---0-0-0-0-0-0--0--0-0-0-0-0--0--3-x-3--5-3-0---|
Db|----0--0---0-0-0-0---0--0---0-0-0-0-0-0--0--0-0-0-0-0--0--3-x-3--5-3-0---|
       .  .   . . . .   .  .   . . . . . .  .  . . . . .  .

Eb|-------------------------------------------------------------------------|
Bb|-------------------------------------------------------------------------|
Gb|-------------------------------------------------------------------------|
Db|-----------0---------------0---------------------------------------------|
Ab|----0--5---5-5-5-5--5--5---5-5-5-5-5-5--5--5-5-5-5-5--5--3-2-0-3-2-0-3-5-|
Db|----0--0---0-0-0-0--0--0---0-0-0-0-0-0--0--0-0-0-0-0--0--3-2-0-3-2-0-3-5-|
          .   . . . .  .  .   . . . . . .  .  . . . . .  .


Eb|-------------------------------------------------------------------------|
Bb|-------------------------------------------------------------------------|
Gb|-------------------------------------------------------------------------|
Db|------------0---------------0-------------------------------8---7---3----|
Ab|-----0--5---5-5-5-5--5--5---5-5-5-5-5-5--5--5-5-5-5-5--5----8---7---3----|
Db|-----0--0---0-0-0-0--0--0---0-0-0-0-0-0--0--0-0-0-0-0--0----8---7---3----|
        .  .   . . . .  .  .   . . . . . .  .  . . . . .  .





---Chorus---
NOTE: These are just the notes I leave the strumming to you
Note: Thanks to "dabitup" for the correct Positioning and such.

Eb|------------------------|
Bb|--------(6)-------------|
Gb|-10------5-------12-----|
Db|-8-------3-------10-----|
Ab|-8-------3-------10-----|
Db|-8-------3-------10-----|



Post Chorus Riff (The intro)

Eb|----------------------------------------------------------------|
Bb|----------------------------------------------------------------|
Gb|----------------------------------------------------------------|
Db|-----------------------------------------------------4p3p0------|
Ab|-0-0--------3h5--0--------5h6---0-0--------3h5-6p5p0------------|
Db|-0-0--0-3h5------0--0-5h7-------0-0--0-3h5-----------------3h5--|
  


[ Tab from: http://www.guitartabs.cc/tabs/d/disturbed/just_stop_tab_ver_4.html ]
Eb|----------------------------------------------------------------|
Bb|----------------------------------------------------------------|
Gb|----------------------------------------------------------------|
Db|----------------------------------------------------------------| Guitar 1
Ab|-0-0--------3h5--0--------5h6---0-0--------3h5-6p5--------------|
Db|-0-0--0-3h5------0--0-5h7-------0-0--0-3h5---------0h3h5-0h3h5--|
  {                                                                }
  {                                                                }
  {                                                                }
Eb|----------------------------------------------------------------|
Bb|----------------------------------------------------------------|
Gb|----------------------------------------------------------------|
Db|------------3h5-----------5h6--------------3h5------------------| Guitar 2
Ab|-0-0-------------0--------------0-0------------6p5--------------|
Db|-0-0--0-3h5------0--0-5h7-------0-0--0-3h5---------0h3h5-0h3h5--|




Eb|------------------------------------------|
Bb|------------------------------------------|
Gb|------------------------------------------|
Db|------------------------------------------|
Ab|-----0--0---0-0-0-0---0--0---0-0-0-0-0-0--|
Db|-----0--0---0-0-0-0---0--0---0-0-0-0-0-0--|
        .  .   . . . .   .  .   . . . . . .  




---Verse--- 
x/ slide down into from above


Eb|-------------------------------------------------------------------------|
Bb|-------------------------------------------------------------------------|
Gb|-------------------------------------------------------------------------|
Db|-------------------------------------------------------------------------|
Ab|----0--0---0-0-0-0---0--0---0-0-0-0-0-0--0--0-0-0-0-0--0--3-x-3-x--3-5---|
Db|-x/-0--0---0-0-0-0---0--0---0-0-0-0-0-0--0--0-0-0-0-0--0--3-x-3-x--3-5---|
        .  .   . . . .   .  .   . . . . . .  .  . . . . .  .


Eb|-------------------------------------------------------------------------|
Bb|-------------------------------------------------------------------------|
Gb|-------------------------------------------------------------------------|
Db|-------------------------------------------------------------------------|
Ab|----0--0---0-0-0-0---0--0---0-0-0-0-0-0--0--0-0-0-0-0--0--3-x-3--5-3-0---|
Db|----0--0---0-0-0-0---0--0---0-0-0-0-0-0--0--0-0-0-0-0--0--3-x-3--5-3-0---|
       .  .   . . . .   .  .   . . . . . .  .  . . . . .  .

Eb|-------------------------------------------------------------------------|
Bb|-------------------------------------------------------------------------|
Gb|-------------------------------------------------------------------------|
Db|-----------0---------------0---------------------------------------------|
Ab|----0--5---5-5-5-5--5--5---5-5-5-5-5-5--5--5-5-5-5-5--5--3-2-0-3-2-0-3-5-|
Db|----0--0---0-0-0-0--0--0---0-0-0-0-0-0--0--0-0-0-0-0--0--3-2-0-3-2-0-3-5-|
          .   . . . .  .  .   . . . . . .  .  . . . . .  .


Eb|-------------------------------------------------------------------------|
Bb|-------------------------------------------------------------------------|
Gb|------------------------------------------------------------3---2--------|
Db|------------0---------------0-------------------------------3---2---2----|
Ab|-----0--5---5-5-5-5--5--5---5-5-5-5-5-5--5--5-5-5-5-5--5----1---0---2----|
Db|-----0--0---0-0-0-0--0--0---0-0-0-0-0-0--0--0-0-0-0-0--0------------2----|
        .  .   . . . .  .  .   . . . . . .  .  . . . . .  .


---Chorus---
NOTE:These are just the notes I leave the strumming to you


Eb|-----|------------------------|
Bb|-3---|--------(6)-------------|
Gb|-3---|-10------5-------12-----|
Db|-3---|-8-------3-------10-----|1st,2nd,3rd Ending
Ab|-1---|-8-------3-------10-----|
Db|-----|-8-------3-------10-----|

        |------------------------|
        |------------------------|
        |-9-------7-------7------|4th Ending 
        |-7-------5-------5------|
        |-7-------5-------5------|
        |-7-------5-------5------|


---Breakdown--- Repeat as needed, first time lay back a bit on the palm mutes. (Done in Guitar Pro)

                                            PM PM PM PM PM PM PM PM   
      E.  E.  E.  E.  E  E     E  S E  E  S S  S  S  S  S  S  S  S    
D#||------------------------|---------------------------------------||
A#||------------------------|---------------------------------------||
F#||------------------------|---------------------------------------||
C#||--0---1---0---3---0--6--|--0--1-0--6--0-------------------------||
G#||--0---1---0---3---0--6--|--0--1-0--6--0-3--0--1--0--6--0--3--5--||
C#||--0---1---0---3---0--6--|--0--1-0--6--0-3--0--1--0--6--0--3--5--||


---Chorus--- First time strum each chord once, second strum with the drums, 3rd is back to usual.

Eb|-----|------------------------|
Bb|-3---|--------(6)-------------|
Gb|-3---|-10------5-------12-----|
Db|-3---|-8-------3-------10-----|1st Ending
Ab|-1---|-8-------3-------10-----|
Db|-----|-8-------3-------10-----|

        |------------------------|
        |--------(6)-------------|
        |-10------5-------12-----|2nd,3rd Ending
        |-8-------3-------10-----|
        |-8-------3-------10-----|
        |-8-------3-------10-----|

        |------------------------|
        |------------------------|
        |-9-------7-------7------|4th Ending 
        |-7-------5-------5------|
        |-7-------5-------5------|
        |-7-------5-------5------|



Post Chorus Riff/outro (The intro)

Eb|----------------------------------------------------------------|
Bb|----------------------------------------------------------------|
Gb|----------------------------------------------------------------|
Db|-----------------------------------------------------4p3p0------|
Ab|-0-0--------3h5--0--------5h6---0-0--------3h5-6p5p0------------|
Db|-0-0--0-3h5------0--0-5h7-------0-0--0-3h5-----------------3h5--|
    



Eb|----------------------------------------------------------------|
Bb|----------------------------------------------------------------|
Gb|----------------------------------------------------------------|
Db|----------------------------------------------------------------|
Ab|-0-0--------3h5--0--------5h6---0-0--------3h5-6p5--------------|
Db|-0-0--0-3h5------0--0-5h7-------0-0--0-3h5---------0h3h5-0h3h5--|
    



Eb|----------------------------------------------------------------|
Bb|----------------------------------------------------------------|
Gb|----------------------------------------------------------------| Guitar 1
Db|-----------------------------------------------------4p3p0------|
Ab|-0-0--------3h5--0--------5h6---0-0--------3h5-6p5p0------------|
Db|-0-0--0-3h5------0--0-5h7-------0-0--0-3h5-----------------3h5--|
  {                                                                }
  {                                                                }
  {                                                                }
Eb|----------------------------------------------------------------|
Bb|----------------------------------------------------------------|
Gb|----------------------------------------------------------------|
Db|------------3h5-----------5h6--------------3h5-------4p3p0------| Guitar 2
Ab|-0-0-------------0--------------0-0------------6p5p0------------|
Db|-0-0--0-3h5------0--0-5h7-------0-0--0-3h5-----------------3h5--|
   



Eb|----------------------------------------------------------------|
Bb|----------------------------------------------------------------|
Gb|----------------------------------------------------------------|
Db|----------------------------------------------------------------| Guitar 1
Ab|-0-0--------3h5--0--------5h6---0-0--------3h5-6p5--------------|
Db|-0-0--0-3h5------0--0-5h7-------0-0--0-3h5---------0h3h5-0h3h5--|
  {                                                                }
  {                                                                }
  {                                                                }
Eb|----------------------------------------------------------------|
Bb|----------------------------------------------------------------|
Gb|----------------------------------------------------------------|
Db|------------3h5-----------5h6--------------3h5------------------| Guitar 2
Ab|-0-0-------------0--------------0-0------------6p5--------------|
Db|-0-0--0-3h5------0--0-5h7-------0-0--0-3h5---------0h3h5-0h3h5--|



Eb|-------------------------------------|
Bb|-------------------------------------|
Gb|-------------------------------------|
Db|----------------------------------0--|
Ab|6p5--------------6p5--------------0--|
Db|----0h3h5-0h3h5------0h3h5-0h3h5--0--|
          

----------
And there it is. I know I make these long but it is, in my opinion, easier to scroll
down instead of jumping around the tab looking for parts 

and sometimes there are parts with small differences and it just makes it easier for
me to show them by writing everything out.
Thanks,
-Jay Logan (Subbliminal@DONTSPAM@hotmail.com) Just remove the 'DONTSPAM of course.
Comments