Disturbed - Just Stop Chords & Tabs

 

Just Stop Chords & Tabs

Disturbed Chords & Tabs

Version: 3 Type: Tab 0 ratings
1 star 2 stars 3 stars 4 stars 5 stars
comments

Just Stop Tab

Band- Disturbed
Song- Just Stop
Album- Ten Thousand Fists
Tuning- Drop C#

Intro/Guitar 1
|-------------------------------------------------------|
|-------------------------------------------------------|
|-------------------------------------------------------|
|-------------------------------------------------------|
|-----------3h5-----------5h7-----------3h5-5p3-5p7-----|
|-0-0-0-3h5-----0-0-0-5h7-----0-0-0-3h5-------------5p3-|

|-------------------------------------------------------|
|-------------------------------------------------------|
|-------------------------------------------------------|
|-------------------------------------------------------|
|-----------3h5-----------5h7-----------3h5-7p5---------|
|-0-0-0-3h5-----0-0-0-5h7-----0-0-0-3h5---------7p5-5p3-|

Intro/Guitar 2(Comes in after gtr.1 plays above 1 time)
|-------------------------------------------------------|
|-------------------------------------------------------|
|-------------------------------------------------------|
|-----------3h5-----------5h7-----------3h5-5p3-5p7-----|
|-------3h5-----------5h7-----------3h5-------------5p3-|
|-0-0-0---------0-0-0---------0-0-0---------------------|

|-------------------------------------------------------|
|-------------------------------------------------------|
|-------------------------------------------------------|
|-----------3h5-----------5h7-----------3h5-7p5---------|
|-------3h5-----------5h7-----------3h5---------7p5-5p3-|
|-0-0-0---------0-0-0---------0-0-0---------------------|

Verse
|-----------------------------------------------|
|-----------------------------------------------|
|-----------------------------------------------|
|-----------------------------------------------|
|-12/-0--0-0-0--0--0-0-0-0-0-0--0-3/2-3/2-3-3h5-|
|-12/-0--0-0-0--0--0-0-0-0-0-0--0-3/2-3/2-3-3h5-|(Not exact strumming pattern
P.M.  .  .....  .  ...........                       for the 0's)
[ Tab from: http://www.guitartabs.cc/tabs/d/disturbed/just_stop_tab_ver_3.html ]
|-------------------------------------------|
|-------------------------------------------|
|-------------------------------------------|
|-------------------------------------------|
|-0--0-0-0--0--0-0-0-0-0-0--0-3/2-3/2-3-5p3-|
|-0--0-0-0--0--0-0-0-0-0-0--0-3/2-3/2-3-5p3-|
P.M. .....  .  ...........

|-------------------------------------------|
|-------------------------------------------|
|-------------------------------------------|
|-------------------------------------------|
|-----------------------------3/2-3/2-3-3h5-|
|-0--0-0-0--0--0-0-0-0-0-0--0-3/2-3/2-3-3h5-|

|-----------------------------------|
|-----------------------------------|
|-----------------------------------|
|-----------------------------------|
|-----------------------------9-8-0-|
|-0--0-0-0--0--0-0-0-0-0-0--0-9-8-0-|

Chorus
|---------------------------------------|
|---------------------------------------|
|-----------------------5-5-5-5-5-5-5-5-|
|-8-8-8-8-8-8-8-3-3-3-3-5-5-5-5-5-5-5-5-|
|-8-8-8-8-8-8-8-3-3-3-3-3-3-3-3-3-3-3-3-|
|-8-8-8-8-8-8-8-3-3-3-3-----------------|

Play Intro

Fill
|------------------------------|
|------------------------------|
|------------------------------|
|------------------------------|
|-0--0-0-0--0--0-0-0-0-0-0-12/-|
|-0--0-0-0--0--0-0-0-0-0-0-12/-|
P.M. .....  .  ...........

Play Verse

Play Chorus

Bridge
|---------------------------------------------|
|---------------------------------------------|
|---------------------------------------------|
|---------------------------------------------|
|-0--3--0--5--0-7-0-3-5-0-3-0-5-3-0-3-5p3-----|
|-0--3--0--5--0-7-0-3-5-0-3-0-5-3-0-3-----5p3-|
P.M.                    .............

|----------------------------------------|
|----------------------------------------|
|---------------------------5~~~~~~~~~~~-|
|-8~~~~~~~~~~~-3~~~~~~~~~~~-5~~~~~~~~~~~-|
|-8~~~~~~~~~~~-3~~~~~~~~~~~-3~~~~~~~~~~~-|
|-8~~~~~~~~~~~-3~~~~~~~~~~~--------------|

Last Chorus Ending Part
|-----------------------------------|
|-----------------------------------|
|-------------------------5-5-5-5-5-|
|-8-8-8-8-8-8-8-2-2-2-2-2-5-5-5-5-5-|
|-8-8-8-8-8-8-8-2-2-2-2-2-3-3-3-3-3-|
|-8-8-8-8-8-8-8-2-2-2-2-2-----------|

Play Intro x2

Ending
|---------------------------------------|
|---------------------------------------|
|---------------------------------------|
|---------------------------------------|
|-5p3-7p5-3h5-5p3-7p5-3h5-5p3-7p5-3h5-0-|
|-5p3-7p5-3h5-5p3-7p5-3h5-5p3-7p5-3h5-0-|

That's all and look for Forgiven and I'm Alive soon!!
Comments