Disturbed - Im Alive Chords & Tabs

 

Im Alive Chords & Tabs

Disturbed Chords & Tabs

Version: 2 Type: Tab 0 ratings
1 star 2 stars 3 stars 4 stars 5 stars
comments

Im Alive Tab

   
Track: I'm Alive
Artist: Disturbed
Album: Ten Thousand Fists(2005)
Courtesy: Manek D'Silva(a.k.a Disturbinator)

The song could also be played in C tuning, I'm not sure what Dan Donegan does... it'll
be a little different in some parts though. This is just how I play the song, there are
many other ways.

PS: Theres alot of background stuff- 2nd verse 2nd guitar? post-bridge chorus(where the
guitars seem to stop)... mainly some plucking of extra notes from the full chord that
you're playing at that time.
If you have an idea about these parts, or if theres anything else you wanna say, email
me at sevenlittledevils@rediffmail.com

~~~:
E|-------------------------------------------------------------|
B|-------------------------------------------------------------|
G|-------------------------------------------------------------|
D|-------------------------------------------------------------|
A|-------------------------------------------------------------|
D|-------------------------------------------------------------|

Main Riff:
E|----------------------------------------------|
B|----------------------------------------------|
G|----------------------------------------------|
D|--3-----------4-----------4-----------4-6-----|
A|--3--0-3-0-3--4--0-3-0-3--4-0-3-0-3---4-6-----|
D|--3--0-3-0-3--4--0-3-0-3--4-0-3-0-3---4-6-0-3-|

E|-------------------------------------------------------|
B|-------------------------------------------------------|
G|-------------------------------------------------------|
D|--3-----------4-----------4-----------4-6---4-6---4-6--|
A|--3--0-3-0-3--4--0-3-0-3--4-0-3-0-3---4-6-0-4-6-0-4-6--|
D|--3--0-3-0-3--4--0-3-0-3--4-0-3-0-3---4-6-0-4-6-0-4-6--|

E|-------------------------------------------------------------------------------------|
B|-------------------------------------------------------------------------------------|
G|----------------------------------------------------------8-6-5--6----6-6--8-6-5-----|
D|--3-----------4-----------4-----------4-6------6----------8-6-5--6-6--6-6--8-6-5-----|
A|--3--0-3-0-3--4--0-3-0-3--4-0-3-0-3---4-6------4--4-4-4-4-6-4-3--4-4--4-4--6-4-3-----|
D|--3--0-3-0-3--4--0-3-0-3--4-0-3-0-3---4-6-0-3--6--6-6-6-6-8-6-5--6-6--6-6--8-6-3-----|

Verse:
E|------------------------------------------------------------|
B|------------------------------------------------------------|
G|------------------------------------------------------------|
D|------------------------------------------------------------|
A|------------------------------------------------------------|
D|-3--3-3-4--4-4-4-4------6-4-3--3--3-3-4--4-4-4-4-----4-3-1--|

E|----------------------------------------------------------------|
B|----------------------------------------------------------------|
G|----------------------------------------8-6-5--6----------------|
D|-------------------------------6--6-6-6-8-6-5--6--6-6----8-6-5--|
A|-----------------------(6-4-3)-4--4-4-4-6-4-3--4--4-4-4--6-4-3--|
D|-3--3-3-4--4-4-4-4------6-4-3--6--6-6-6-8-4-5--6--6-6-6--8-6-5--|

E|------------------------------------------------|
B|------------------------------------------------|
G|------------------------------------------------|
D|--3-------------4-----------4-------------------|
A|--3--0-3-0-3--3/4--0-3-0-3--4-0-3-0-3---6-4-3---|
D|--3--0-3-0-3--3/4--0-3-0-3--4-0-3-0-3---6-4-3---|

E|------------------------------------------------|
B|------------------------------------------------|
G|------------------------------------------------|
D|--3-----------3/4-----------4-----------6-------|
A|--3--0-3-0-3--3/4--0-3-0-3--4-0-3-0-3---6-4-3---|
D|--3--0-3-0-3--3/4--0-3-0-3--4-0-3-0-3---6-4-3---|
[ Tab from: http://www.guitartabs.cc/tabs/d/disturbed/im_alive_tab_ver_2.html ]
E|--------------------------------------------------------------------------------|
B|--------------------------------------------------------------------------------|
G|--------------------------------------------------------8-6-5--6----------------|
D|--3-----------3/4-----------4-----------6-4-3--6--6-6-6-8-6-5--6--6-6----8-6-5--|
A|--3--0-3-0-3--3/4--0-3-0-3--4-0-3-0-3---6-4-3--4--4-4-4-6-4-3--4--4-4-4--6-4-3--|
D|--3--0-3-0-3--3/4--0-3-0-3--4-0-3-0-3---6-4-3--6--6-6-6-8-4-5--6--6-6-6--8-6-5--|

Chorus:
E|-------|-------|-------|-------|
B|-------|-------|-------|-------|
G|-10-10-|-13-13-|-(13)--|-(15)--|
D|-10-10-|-13-13-|-11-11-|-13-13-|
A|-8--8--|-11-11-|-11-11-|-13-13-|
D|-10-10-|-13-13-|-11-11-|-13-13-|

Post-Chorus:
E|---------------------------------------------------------------------------------------|
B|---------------------------------------------------------------------------------------|
G|---------------------------------------------------------------------------------------|
D|----------------------------------------3\-5-6-3333-3\-5-6-5-8--3\-5-6-3333-3\-5-6-5-8-|
A|-6-6--6--6-6-6--6--6-6-6--6--6-6-6--6-6-3\-3-4-1111-3\-3-4-3-6--3\-3-4-1111-3\-3-4-3-6-|
D|----------------------------------------3\-5-6-3333-3\-5-6-5-8--3\-5-6-3333-3\-5-6-5-8-|

Verse 2:
E|------------------------------------------------|	x3
B|------------------------------------------------|
G|------------------------------------------------|
D|------------------------------------------------|
A|------------------------------------------------|
D|--3--0-3-0-3--3/4--0-3-0-3--4-0-3-0-3---6-4-3---|

E|---------------------------------|
B|---------------------------------|
G|----------8-6-5--6---------------|
D|-6--6-6-6-8-6-5--6--6-6-6--8-6-5-|
A|-4--4-4-4-6-4-3--4--4-4-4--6-4-3-|
D|-6--6-6-6-8-6-5--6--6-6-6--8-6-5-|

E|------------------------------------------------|	x3
B|------------------------------------------------|
G|------------------------------------------------|
D|--3-------------4-----------4-------------------|
A|--3--0-3-0-3--3/4--0-3-0-3--4-0-3-0-3---6-4-3---|
D|--3--0-3-0-3--3/4--0-3-0-3--4-0-3-0-3---6-4-3---|

E|---------------------------------|
B|---------------------------------|
G|----------8-6-5--6---------------|
D|-6--6-6-6-8-6-5--6--6-6-6--8-6-5-|
A|-4--4-4-4-6-4-3--4--4-4-4--6-4-3-|
D|-6--6-6-6-8-6-5--6--6-6-6--8-6-5-|

Repeat:
Chorus

Bridge:
E|-------------------------------------------------------|	x4
B|-------------------------------------------------------|
G|-------------------------------------------------------|
D|-5-6---------5-6---------5-6---------1-1--6-6-6-6-6-6--|
A|-3-6--5-6-5--3-6--5-6-8--3-6--5-6-5--1-1--4-4-4-4-4-4--|
D|-5-6--5-6-5--5-6--5-6-8--5-6--5-6-5--1-1--6-6-6-6-6-6--|

Repeat:
Main Riff
Chorus
Post-Chorus(I part)

Post-Chorus/Outro:
E|--------------------------------------|
B|--------------------------------------|
G|--------------------------------------|
D|--------------------------------------|
A|-6-6--6--6-6-6--6--666-6--6--6-6-6--6-|
D|--------------------------------------|

E|--------------------------------------------------------------------------------------------|
B|--------------------------------------------------------------------------------------------|
G|--------------------------------------------------------------------------------------------|
D|---------------------------------------------3\-5-6-3333-3\-5-6-5-8--3\-5-6-3333-3\-5-6-5-8-|
A|-6-6-6--6--6-6-6--6--666-6--6-6-6-4-3--------3\-3-4-1111-3\-3-4-3-6--3\-3-4-1111-3\-3-4-3-6-|
D|--------------------------------------6-4-3--3\-5-6-3333-3\-5-6-5-8--3\-5-6-3333-3\-5-6-5-8-|

E|------------------------------------------------|----|
B|------------------------------------------------|----|
G|------------------------------------------------|-10-|
D|-3\-5-6-3333-3\-5-6-5-8--3\-5-6-3333-3\-5-6-5-8-|-10-|
A|-3\-3-4-1111-3\-3-4-3-6--3\-3-4-1111-3\-3-4-3-6-|--8-|
D|-3\-5-6-3333-3\-5-6-5-8--3\-5-6-3333-3\-5-6-5-8-|-10-|
Comments