Disturbed - Hell Chords & Tabs

 

Hell Chords & Tabs

Disturbed Chords & Tabs

Version: 2 Type: Tab 0 ratings
1 star 2 stars 3 stars 4 stars 5 stars
comments

Hell Tab

   
Hell
Disturbed
Stricken (single)

Tuning Drop Db (DbAbDbGbBbEb)

Intro


Eb|------------------------|------------------------|
Bb|------------------------|------------------------|
Gb|------------------------|------------------------|
Db|-5-8-7-------7-7---5-8-7|-5-8-7-------7-7---7-8-7|
Ab|-3-6-5-0-0-0-5-5-0-3-6-5|-3-6-5-0-0-0-5-5---5-6-5|
Db|-------0-0-0-----0------|-------0-0-0-----0------|
          x x x     x              x x x     x

Eb|-------------------------|---------------------------------|
Bb|-------------------------|---------------------------------|
Gb|-------------------------|---------------------------------| x2
Db|-7-10-9-------9-9---8----|-10----10-----10-----12-----12-12|
Ab|-5--8-7-0-0-0-7-7-0-7-0-0|--8-0-0-8-0-0--8-0-0-10-0-0-10-10|
Db|--------0-0-0-----0---0-0|----0-0---0-0----0-0----0-0------|
           x x x     x   x x     x x   x x    x x    x x

Eb|---|
Bb|---|
Gb|---|
Db|---|
Ab|-0-|
Db|-0-|

Verse (part 1)
[ Tab from: http://www.guitartabs.cc/tabs/d/disturbed/hell_tab_ver_2.html ]
Eb|---------------|
Bb|---------------|
Gb|---------------| x6
Db|---------------|
Ab|-0-0--0-00-0000|
Db|-0-0--0-00-0000|
    x x  x xx xxxx

Eb|-------------------|
Bb|-------------------|
Gb|-------------------|
Db|-------------------|
Ab|-0-0--0-0----------|
Db|-0-0--0-0-8-7h8-3-5|
    x x  x x

Verse (part 2)

Eb|---------------|
Bb|---------------|
Gb|---------------| x3
Db|---------------|
Ab|---------------|
Db|-0-0--0-00-0000|
   
Eb|-------------------|
Bb|-------------------|
Gb|-------------------|
Db|-------------------|
Ab|-------------------|
Db|-0-0--0-0-8-7h8-3-5|

Eb|---------------|
Bb|---------------|
Gb|---------------| x3
Db|---------------|
Ab|---------------|
Db|-0-0--0-00-0000|
   

Eb|-------------------|
Bb|-------------------|
Gb|-------------------|
Db|-------------------|
Ab|-------------------|
Db|-0-0--0-0-3-0-3-5-7|

OK, well this is up the verse. Sorry about doing it in bits, it's just a noticed an
error or two in the intro tab I did. And I think I'll just make it clear; this song
is HELL, not STRICKEN.
Comments