Disturbed - Glass Shatters Chords & Tabs

 

Glass Shatters Chords & Tabs

Disturbed Chords & Tabs

Version: 1 Type: Tab 0 ratings
1 star 2 stars 3 stars 4 stars 5 stars
comments

Glass Shatters Tab

Probably not right, but close enough.
This is my first tab.
You figure out the timing
by CM HughJazz
    
     (glass breaks)
(Lowly)Step up cause' ......
e|-------------------------------------------------------------|
B|-------------------------------------------------------------|
G|-------------------6----------------------0------------------|
D|---0-0--0-1--0-0----------0-0--0-1--0-0----------------------|  2x
A|---0-0--0-1--0-0----------0-0--0-1--0-0----------------------|
E|---0-0--0-1--0-0----------0-0--0-1--0-0----------------------|


(loud)Step up cause' ......
e|-------------------------------------------------------------|
B|-------------------------------------------------------------|
G|-------------------------------------------------------------|
D|---0-0---0-1---0-0---0-0---1-0-------------------------------|  8x
A|---0-0---0-1---0-0---0-0---1-0-------------------------------|
E|---0-0---0-1---0-0---0-0---1-0-------------------------------|


    I'm breakin' the.......
e|-------------------------------------------------------------|
B|-------------------------------------------------------------|
G|-------------------------------------------------------------|
D|-------------------------------------------------------------|  4x
A|-------------------------------------------------------------|
E|---0h6--0h6--0h6--0h6--6-7-----0h6--0h6--0h6--0h6--7-6-------|
         
         Repeat all of this a 2nd time
 
       
[ Tab from: http://www.guitartabs.cc/tabs/d/disturbed/glass_shatters_tab.html ]
e|-------------------------------------------------------------|
B|-------------------------------------------------------------|
G|--------6-------------0------------6b-------------0~---------| (vibrato with
D|-------------------------------------------------------------| tromolo bar)
A|-------------------------------------------------------------|
E|-------------------------------------------------------------|

     long pause (only drums are playing)


    I'm breakin' the.......
e|-------------------------------------------------------------|
B|-------------------------------------------------------------|
G|-------------------------------------------------------------|
D|-------------------------------------------------------------|  2x
A|-------------------------------------------------------------|
E|---0h6--0h6--0h6--0h6--6-7-----0h6--0h6--0h6--0h6--7-6-------|

(glass breaks)
(Lowly)Step up cause' ......
e|-------------------------------------------------------------|
B|-------------------------------------------------------------|
G|-------------------6----------------------0------------------|
D|---0-0--0-1--0-0----------0-0--0-1--0-0----------------------|  2x
A|---0-0--0-1--0-0----------0-0--0-1--0-0----------------------|
E|---0-0--0-1--0-0----------0-0--0-1--0-0----------------------|


(loud)Step up cause' ......
e|-------------------------------------------------------------|
B|-------------------------------------------------------------|
G|-------------------------------------------------------------|
D|---0-0---0-1---0-0---0-0---1-0-------------------------------|  8x
A|---0-0---0-1---0-0---0-0---1-0-------------------------------|
E|---0-0---0-1---0-0---0-0---1-0-------------------------------|


    I'm breakin' the.......
e|-------------------------------------------------------------|
B|-------------------------------------------------------------|
G|-------------------------------------------------------------|
D|-------------------------------------------------------------|  4x
A|-------------------------------------------------------------|
E|---0h6--0h6--0h6--0h6--6-7-----0h6--0h6--0h6--0h6--7-6-------|
         
     
      that's it, it is a very easy song if you know the timing
Comments