Disturbed - Forsaken Chords & Tabs

 

Forsaken Chords & Tabs

Disturbed Chords & Tabs

Version: 1 Type: Bass Tab 0 ratings
1 star 2 stars 3 stars 4 stars 5 stars
comments

Forsaken Bass Tab

   
"Forsaken" The Vampire Lestat
Queen of the Damned: Music from the Motion Picture

David Draiman - vocals
Brian "Head" Welch and James "Munky" Shaffer - guitars
Sam Rivers - bass
Vinnie Colaiuta - drums
Richard "Hard" Gibbs and Jonathan Davis - keyboards

Tabbed By : Justin a.k.a KornKid89
e-mail: XBlytheX89@aol.com

Tuning: DADG

Intro: 
G|--------------|--------------|--------------|--------------|
D|--------------|--------------|--------------|--------------|
A|--------------|--------------|--------------|--------------|
D|-2-2--2232-2--|-2-2--2232-2--|-2-2--2232-2--|-3-3---343--3-|

G|--------------|--------------|
D|--------------|--------------|
A|--------------|--------------|
D|-5-5---565-5--|-7-7---787-7--|

Verse 1:
                "I'm over it..."            
G|--------------|--------------|--------------|--------------|-----|
D|--------------|--------------|--------------|--------------|-----|
A|--------------|--------------|--------------|--------------|-----|
D|-2-2--2232-2--|-3-3---343-3--|-5-5---565-5--|-7-7---787-7--|-7\5-|
(x2)
[ Tab from: http://www.guitartabs.cc/tabs/d/disturbed/forsaken_btab.html ]
Pre-chorus: 
         "I hear it fading..."
G|----------------|----------------|----------------|----------------|
D|----------------|----------------|----------------|----------------|
A|----------------|----------------|----------------|----------------|
D|2222222222222222|3333333333333333|5555555555555555|7777777777779999|
(x2)

Chorus:
          "You see, I cannot be forsaken..."
G|----------------|----------------|----------------|----------------|
D|----------------|----------------|----------------|----------------|
A|----------------|1111111111111111|0000000000000000|----------------|
D|0000000000000000|----------------|----------------|5555555555555555|
(x2)

Verse 2: (with intro)
G|--------------|--------------|--------------|--------------|
D|--------------|--------------|--------------|--------------|
A|--------------|--------------|--------------|--------------|
D|-2-2--2232-2--|-2-2--2232-2--|-2-2--2232-2--|-2-2--2232-2--|

                "I'm over it..."
G|--------------|---------------|---------------|---------------|-----|
D|--------------|---------------|---------------|---------------|-----|
A|--------------|---------------|---------------|---------------|-----|
D|-2-2--2232-2--|-3-3---3h43-3--|-5-5---5h65-5--|-7-7---7h87-7--|-7\5-|
(x2)

Bridge (very short):
G|-----------------------------------|
D|-----------------------------------|
A|-----------------------------------|
D|-(2)~~~~~~~---(3)~~~~~~~p(2)~~-----|

(Chorus)



|( ) ghost note
| /  slide up
| \  slide down
| h  hammer-on
| p  pull-off
| ~  vibrato
| +  harmonic
| x  Mute note
=============================================================================
Comments