Disturbed - Forgiven Chords & Tabs

 

Forgiven Chords & Tabs

Disturbed Chords & Tabs

Version: 1 Type: Tab 0 ratings
1 star 2 stars 3 stars 4 stars 5 stars
comments

Forgiven Tab

Band- Disturbed
Song- Forgiven
Album- Ten Thousand Fists
Tuning- Drop C

Intro
|---------------------------------------|
|---------------------------------------|
|---------------------------------------|
|-----------------------3-3-3-8-8-8-8-8-|
|-7-5-7-5-7-7-5-7-5-7-7-3-3-3-8-8-8-8-8-|
|-7-5-7-5-7-7-5-7-5-7-7-3-3-3-8-8-8-8-8-|(Play 3's and 8' open last time)
P.M....................................

|---------------------------------------|
|---------------------------------------|
|---------------------------------------|
|-----------------------3-3-3-8-8-8-8-8-|
|-7-5-7-5-7-7-5-7-5-7-7-3-3-3-8-8-8-8-8-|
|-7-5-7-5-7-7-5-7-5-7-7-3-3-3-8-8-8-8-8-|

Guitar 2
|--------------------------------------------|
|--------------------------------------------|
|-----------------------5-5-5-10-10-10-10-10-|
|-----------------------x-x-x-x--x--x--x--x--|
|-7-5-7-5-7-7-5-7-5-7-7-3-3-3-8--8--8--8--8--|
|-7-5-7-5-7-7-5-7-5-7-7----------------------|

Verse
|---------------------------------------|
|---------------------------------------|
|---------------------------------------|
|-----------------------3-3-3-8-8-8-8-8-|
|-7-5-7-5-7-7-5-7-5-7-7-3-3-3-8-8-8-8-8-|
|-7-5-7-5-7-7-5-7-5-7-7-3-3-3-8-8-8-8-8-|(Play 2 times)
P.M....................................

|-------|
|-------|
|-------|
|----5*-|
|-5*----|
|-------|(After the harmonics play the other verse part w/o P.M.)

Chorus
|-----------------------------------------|
|-----------------------------------------|
|-----------------------------------------|
|-3-x-x-3-0-7---------------5h7p5---------|
|-3-x-x-3-0-7-5h7-7-0-0-5h7-------7p5-----|
|-3-x-x-3-0-7-5h7-7-0-0---------------7p5-|
P.M.                ...
[ Tab from: http://www.guitartabs.cc/tabs/d/disturbed/forgiven_tab.html ]
|-----------------------------------|
|-----------------------------------|
|-----------------------------------|
|-3-x-x-3-8-7-----------------------|
|-3-x-x-3-8-7-5h7-7p5-5h7-7p5-5-7-8-|
|-3-x-x-3-8-7-5h7-7p5-5h7-7p5-5-7-8-|

|-----------------------------------------|
|-----------------------------------------|
|-----------------------------------------|
|-3-x-x-3-0-7---------------5h7p5---------|
|-3-x-x-3-0-7-5h7-7-0-0-5h7-------7p5-----|
|-3-x-x-3-0-7-5h7-7-0-0---------------7p5-|
P.M.                ...

|---------------------------|
|---------------------------|
|-7-7-7-7-7-7-7-------------|
|-5-5-5-5-5-5-5-3-2-0-2-3-5-|
|-5-5-5-5-5-5-5-3-2-0-2-3-5-|
|-5-5-5-5-5-5-5-3-2-0-2-3-5-|

Play Intro

Play Verse

Play Chorus

Bridge
|----------|
|----------|
|----------|
|-7~~~~~~~-|
|-7~~~~~~~-|
|-7~~~~~~~-|

|-----------------------------------------|
|-----------------------------------------|
|-----------------------------------------|
|-7-7-7-7-7-3-3-3-3-3-8-8-8-8-8-2-2-2-2-2-|
|-7-7-7-7-7-3-3-3-3-3-8-8-8-8-8-2-2-2-2-2-|
|-7-7-7-7-7-3-3-3-3-3-8-8-8-8-8-2-2-2-2-2-|
P.M......................................

Solo Build-Up
|---------------|
|---------------|
|---------------|
|-2-2-2-2-2-2-2-|
|-2-2-2-2-2-2-2-|
|-2-2-2-2-2-2-2-|
P.M....

Solo Backing
(Play intro part with a few variations that you should be able to figure out)

Play Chorus

Last Chorus Ending
|-------------------------------|
|-------------------------------|
|-------------------------------|
|-----------------5h7p5---------|
|-3p2-3p2-3p2-5h7-------7p5-----|
|-3p2-3p2-3p2---------------7p5-|

Ending
|--------------------------------------------------|
|--------------------------------------------------|
|--------------------------------------------------|
|-----------------------3-x-3-x-3-8-x-8-x-8-x-8-10-|
|-7-5-7-5-7-7-5-7-5-7-7-3-x-3-x-3-8-x-8-x-8-x-8-10-|
|-7-5-7-5-7-7-5-7-5-7-7-3-x-3-x-3-8-x-8-x-8-x-8-10-|

End On
|---------------|
|---------------|
|---------------|
|-7~~~~~~~~~~~~-|
|-7~~~~~~~~~~~~-|
|-7~~~~~~~~~~~~-|
Comments