Disturbed - Fear Chords & Tabs

 

Fear Chords & Tabs

Disturbed Chords & Tabs

Version: 2 Type: Tab 0 ratings
1 star 2 stars 3 stars 4 stars 5 stars
comments

Fear Tab

   
Band- Disturbed
Song- Fear

Tuning - Db-Ab-Db-Gb-Bb-Eb


INTRO (2x)
|-----------------------------------------------|
|-----------------------------------------------|
|-----------------------------------------------|
|--2-0-2-3-2-3-2-0-2-3-2-3-2-0-2-3-2-3-2-0-2-3--|
|--2-0-2-3-2-3-2-0-2-3-2-3-2-0-2-3-2-3-2-0-2-3--|
|--2-0-2-3-2-3-2-0-2-3-2-3-2-0-2-3-2-3-2-0-2-3--|

|-----------------------------------------------|
|-----------------------------------------------|
|-----------------------------------------------|
|--2-0-2-3-2-3-2-0-2-3-2-3-2-0-2-3-2-3-2-0-2-5--|
|--2-0-2-3-2-3-2-0-2-3-2-3-2-0-2-3-2-3-2-0-2-5--|
|--2-0-2-3-2-3-2-0-2-3-2-3-2-0-2-3-2-3-2-0-2-5--|
[ Tab from: http://www.guitartabs.cc/tabs/d/disturbed/fear_tab_ver_2.html ]
VERSE
|-------------------------------------------------|
|-------------------------------------------------|
|-------------------------------------------------|
|--2-0-2-3-2-3-2-0-2-3-2-3-2-0-2-3-2-3-2-0-2-333--|
|--2-0-2-3-2-3-2-0-2-3-2-3-2-0-2-3-2-3-2-0-2-333--|
|--2-0-2-3-2-3-2-0-2-3-2-3-2-0-2-3-2-3-2-0-2-333--|
pm . .   . . . . .   . . . . .   . . . . .   ...
   
|-------------------------------------------------|
|-------------------------------------------------|
|-------------------------------------------------|
|--2-0-2-3-2-3-2-0-2-3-2-3-2-0-2-3-2-3-2-0-2-333--|
|--2-0-2-3-2-3-2-0-2-3-2-3-2-0-2-3-2-3-2-0-2-333--|
|--2-0-2-3-2-3-2-0-2-3-2-3-2-0-2-3-2-3-2-0-2-333--|
pm . .   . . . . .   . . . . .   . . . . .

CHORUS
|----------------------------------------------------|
|----------------------------------------------------|
|----------------------------------------------------|
|--5h7-2-2--5h8-2-2--5h7-2/5-5h8-2-2--2-2-2-2-2/888--|
|--5h7-2-2--5h8-2-2--5h7-2/5-5h8-2-2--2-2-2-2-2/888--|
|--5h7-2-2--5h8-2-2--5h7-2/5-5h8-2-2--2-2-2-2-2/888--|
                                      . . . .
|--------------------------------------------------------------|
|--------------------------------------------------------------|
|--9/----------10--9/------------9/----------10--9/------------|
|--9/-2-3-5-10-10--9/-2-3-5-5-3--9/-2-3-5-10-10--9/-2-3-5-5-3--|
|--7/-2-3-5-10-8---7/-2-3-5-5-3--7/-2-3-5-10-8---7/-2-3-5-5-3--|
|-----2-3-5-10--------2-3-5-5-3-----2-3-5-10--------2-3-5-5-3--|

BRIDGE
|--------------------------------------|
|--------------------------------------|
|------3-----3----3------3-------------| x6
|--2-2---2-2---2-2---2-2---2-2-3-2-00--|
|--2-2---2-2---2-2---2-2---2-2-3-2-00--|
|--2-2---2-2---2-2---2-2---2-2-3-2-00--|

|-----------------------------------|
|-----------------------------------|
|-----------------------------------|
|-----------------------------------|
|-----------------------------------|
|--2-2-3-2-0-2-2-3-2-0-2-2-3-2-0-2--|
Comments