Disturbed - Fear Chords & Tabs

 

Fear Chords & Tabs

Disturbed Chords & Tabs

Version: 1 Type: Bass Tab 0 ratings
1 star 2 stars 3 stars 4 stars 5 stars
comments

Fear Bass Tab

   
Author/Artist: Distrubed
Title: Fear
Album: The Sickness
Transcribed by: Michael B.
Email: the_gamer73@hotmail.com

Bottom line is E.  

-------------------------------------x2|--------------------------------------
---------------------------------------|--------------------------------------
---------------------------------------|--------------------------------------
---------------------------------------|--------------------------------------
--------3vvvv2vvvv\\-------------------|--------------------------------------
-0vvvvv--------------0vvvvv-4vvvv5vvvv-|--------------------------------------
 (intro, v's mean 'let ring')                                                 

---------------------------------------------------x3|------------------------
-----------------------------------------------------|------------------------
-----------------------------------------------------|------------------------
-----------------------------------------------------|------------------------
-----------------------------------------------------|------------------------
-1-p0-h1--11--1-p0-h1--11--1-p0-h1--11--1-p0-h1--3/4-|------------------------
 chorus                                                                       

---------------------------------x2|------------------------------------------
-----------------------------------|------------------------------------------
-----------------------------------|------------------------------------------
-----------------------------------|------------------------------------------
-----------------------------------|------------------------------------------
-xx-7--xx-xx7--xx-xx7--xx-xx7--xx--|------------------------------------------
 verse  (either scratch or mute x's, which either you perfer)                 

------------------------------------------------------x2|---------------------
--------------------------------------------------------|---------------------
--------------------------------------------------------|---------------------
--------------------------------------------------------|---------------------
--------------------------------------------------------|---------------------
-1-p0-h1--11--1-p0-h1--11--1-p0-h1--11--1-p0-h1--xxxxx--|---------------------
 chorus                                          (x or open E)                
[ Tab from: http://www.guitartabs.cc/tabs/d/disturbed/fear_btab.html ]
---------------------------------x2|------------------------------------------
-----------------------------------|------------------------------------------
-----------------------------------|------------------------------------------
-----------------------------------|------------------------------------------
-----------------------------------|------------------------------------------
-xx-7--xx-xx7--xx-xx7--xx-xx7--xx--|------------------------------------------
 verse (scratch or mute xs)                                                   

-----------------------------------------------------x5|----------------------
-------------------------------------------------------|----------------------
-------------------------------------------------------|----------------------
-------------------------------------------------------|----------------------
-------------------------------------------------------|----------------------
-1-p0-h1--11--1-p0-h1--11--1-p0-h1--11--1-p0-h1--xxxxx-|----------------------
 chorus                                          (x or open E)                

-----------------x2|-----------------------|--------------x4------------------
-------------------|-----------------------|----------------------------------
-------------------|-----------------------|----------------------------------
-------------------|-----------------------|----------------------------------
-3--------3--------|-----------------------|----------------------------------
-0--3-56--0--3-56--|-00-----00-----00-00-0-|-1200-----------------------------
 "fear awaken..."      (first 2 times)     (add this part after 2 times)      

-----------------------------------------------------x4|----------------------
-------------------------------------------------------|----------------------
-------------------------------------------------------|----------------------
-------------------------------------------------------|----------------------
-------------------------------------------------------|----------------------
-1-p0-h1--11--1-p0-h1--11--1-p0-h1--11--1-p0-h1--xxxxx-|----------------------
                                                 (x or open E)                

----------------x4|---------------------------------------------------x2|-----
------------------|-----------------------------------------------------|-----
------------------|-----------------------------------------------------|-----
------------------|-----------------------------------------------------|-----
-3--------3-------|-----------------------------------------------------|-----
-0--3-56--0--3-56-|-1-p0-h1--11--1-p0-h1--11--1-p0-h1--11--1-p0-h1--3/4-|-----
                                                                              

---------------x2|------------------------------------------------------------
-----------------|------------------------------------------------------------
-----------------|------------------------------------------------------------
-----------------|------------------------------------------------------------
-----------------|------------------------------------------------------------
-00-6--0000-00-6-|-00-6--0000-00-00-------------------------------------------
Comments