Disturbed - Droppin Plates Chords & Tabs

 

Droppin Plates Chords & Tabs

Disturbed Chords & Tabs

Version: 3 Type: Tab 0 ratings
1 star 2 stars 3 stars 4 stars 5 stars
comments

Droppin Plates Tab

   
Song: Droppin' Plates
Artist: Disturbed
Album: The Sickness
Tuning:C#G#C#F#A#D#

Riff A ONLY FEEDBACK!!
-------------------------
-------------------------
-------------------------
-0-----------------------
-0-----------------------
-0-----------------------

Riff B
-------------------------
-------------------------
-------------------------
-0-X-X-X-3-0-1-1-1-1-----
-0-X-X-X-3-0-1-1-1-1-----
-0-X-X-X-3-0-1-1-1-1-----

Riff C
-7-7-7-7-7-7-7-7---------
-------------------------
-------------------------
-------------------------
-------------------------
-------------------------

Riff D
-------------------------
-------------------------
-------------------------
-------------------------
-3-0-1-3-0-7-9-5-3-0-----
-3-0-1-3-0-7-9-5-3-0-----
[ Tab from: http://www.guitartabs.cc/tabs/d/disturbed/droppin_plates_tab_ver_3.html ]
Riff E
-------------------------
-------------------------
-------------------------
-------------------------
-7-9---------------------
-7-9---------------------

Riff F
-------------------------
-10-15-10-10-8-6---------
-------------------------
-------------------------
-------------------------
-------------------------

Riff G Palm Mute
-------------------------
-------------------------
-------------------------
-0-----------------------
-0-----------------------
-0-----------------------

Riff H
-------------------------
-------------------------
-------------------------
-0-2-0-2-0-2-0-0-0-0-0---
-0-2-0-2-0-2-0-0-0-0-0---
-0-2-0-2-0-2-0-0-0-0-0---

Riff I
-------------------------
-------------------------
-------------------------
-------------------------
-0-3-0-1-1-1-------------
-0-3-0-1-1-1-------------

Questions? Comments? Don't bother. Leave me alone, but just in case- my 
e-mail is flipout121@go.com
Comments