Disturbed - Droppin Plates Chords & Tabs

 

Droppin Plates Chords & Tabs

Disturbed Chords & Tabs

Version: 1 Type: Bass Tab 0 ratings
1 star 2 stars 3 stars 4 stars 5 stars
comments

Droppin Plates Bass Tab

Band- Disturbed
Song- Droppin' Plates
Tuning- Drop Db

Intro/Chorus

|-------------------------------------|
|-------------------x2----------------|
|-------------------------------------|
|-0--0-1-1-1-1-1--1--0--0-1-1-1-1-1-6-|
|-------------------------------------|

Verse 1

|------------------|-------------------------|
|----x3------------|-------------------------|
|-----------5-5-5-5|-----5-------3---3---3---|
|-1-1--0--0--------|-5-5---5-3-3---3---3---3-|
|------------------|-------------------------|

Pre-Chorus

|----------------------------------------------------|
|----------------------------------------------------|
|----------------------------------------------------|
|-1-0-----6--0-3-5-0-3-0-3--1-0-----6--0-3-5-0-3-3-3-|
|-----4-3-----------------------4-3------------------|

Verse 2
[ Tab from: http://www.guitartabs.cc/tabs/d/disturbed/droppin_plates_btab.html ]
|--------------------|-------------------------|
|---x3-------5-5-5-5-|-------------------------|
|--------------------|-----5-------3---3---3---|
|-1-1--0-0-----------|-5-5---5-3-3---3---3---3-|
|--------------------|-------------------------|

|--------------------------------------------|
|--------------------------------------------|
|--------------------------------------------|
|-1-0--0-0--0-0-0--0-0-0--------0-0-0--0-0-0-|
|------------------------1-4-3---------------|

|------------------------------------------------|
|------------------------------------------------|
|----------------------------5-------3---3---3---|
|-1-0--0-0--0-0-0--0-0-0-5-5---5-3-3---3---3---3-|
|------------------------------------------------|

Bridge

|-------------------------------------------------|
|------12-13-12-13-12-13-12-12-12-12--12-12-12-12-|
|-------------------------------------------------|
|-0~----------------------------------------------|
|-------------------------------------------------|
Comments