Disturbed - Down With The Sickness Chords & Tabs

 

Down With The Sickness Chords & Tabs

Disturbed Chords & Tabs

Version: 9 Type: Tab 0 ratings
1 star 2 stars 3 stars 4 stars 5 stars
comments

Down With The Sickness Tab

   
-------------------------------------------------------------------------------
DOWN WITH THE SICKNESS(THE RIGHT WAY)    DISTURBED
-------------------------------------------------------------------------------

Tabbed by:BOB 
Email:Bglassjar@aol.com
[ Tab from: http://www.guitartabs.cc/tabs/d/disturbed/down_with_the_sickness_tab_ver_9.html ]
Tuning:DADGBE   DOWN A HALF STEP
                                 pm..  
e|X-X--X-X--X-X--X-X--X-X-X-X-----------------------------------------|
B|X-X--X-X--X-X--X-X--X-X-X-X-----------------------------------------|
G|X-X--X-X--X-X--X-X--X-X-X-X-----------------------------------------|
D|X-X--X-X--X-X--X-X--X-X-X-X-----23252-23252-2325----23252-23252-2325|
A|X-X--X-X--X-X--X-X--X-X-X-X-----------------------------------------|
D|X-X--X-X--X-X--X-X--X-X-X-X-----------------------------------------|
                                                     UH AH AH AH AH (OR WHAT EVER HE SAYS!!)
e|-----------------------------------------------------------------------
B|-----------------------------------------------------------------------
G|-----------------------------------------------------------------------
D|2-2-2-2-2--2-2-2-2-2--2-2-2-2--2-2-2-2-2-2-2-2-2-2-3333----------------
A|2-2-2-2-2--2-2-2-2-2--2-2-2-2--2-2-2-2-2-2-2-2-2-2-3333----------------
E|2^3-2^5-2--2^3-2^5-2--2^3-2^5--2^3-2^5-2-2^3-2^5-2-3333----------------
   drowing deep in my sea...........                        harm.
e|---------------------------------------------------------------------------|
B|--------------------------------------------------------------5------------|
G|------------------------------------------------------------55-------------|
D|-----------------------------------------------------------5---------------|
A|---------------------------------------------------------------------------|
E|2222-22222-2222-2222-22222-22222-2222-2222-22222-2222-22222----------------|
  It seems your having..................          in meeeeeeeeee
e|------------------------------------------------------------
B|------------------------------------------------------------
G|------------------------------------------------------------
D|2-2-2-2-2-2-2-2-2-2-2-2-2-2 -2-2-2-2-2-2-2-2-2-2-3333-------
A|2-2-2-2-2-2-2-2-2-2-2-2-2-2 -2-2-2-2-2-2-2-2-2-2-3333-------
E|2^3-2^5-2-2^3-2^5-2-2^3-2^5 -2^3-2^5-2-2^3-2^5-2-3333-------
|
                             chorse
e|----------------------------harm------------------harm----slide----------|
B|-------harm------------------5---------------------5---------------------|
G|--------55--------------------5---------------------5--------------------|
D|2-2^3-2----2-2^3-2^0---2-2^3----2-2^3-2^0--2-2^3-2---5---(0)---8~~-------|
A|2-2^3-2----2-2^3-2^0---2-2^3----2-2^3-2^0--2-2^3-2-----------------------|
E|2-2^3-2----2-2^3-2^0---2-2^3----2-2^3-2^0--2-2^3-2-----------------------|
  first and third time       second time        fourth time        
e|---------------------------------------------------------------------------|
B|---------------------------------------------------------------------------|
G|------------------------54-----4-5------4-5----4-5X------4-5---------------|
D|------------------------54-X3X-4-5X3-3X-4-53-X-4-5X-3-3X-4-5---------------|
A|---2-3XX6-32-----2-3XX6-32-X3X-2-3X3-3X-2-33-X-2-3X-3-3X-2-3---------------|
E|3XX---------3-3XX----------X3X-----3-3X----3-X------3-3X-------------------|
                              NO MOMMY..............
e|---------------------------------------------------------------------------|
B|---------------------------------------------------------------------------|
G|---------------------------------------------------------------------------|
D|23252-23252-2325-23252-23252-2325------------------------------------------
A|---------------------------------------------------------------------------|
E|---------------------------------------------------------------------------|

e|---------------------------------------------------------------------------|
B|---------------------------------------------------------------------------|
G|---------------------------------------------------------------------------|
D|---------------------------------------------------------------------------|
A|---------------------------------------------------------------------------|
E|---------------------------------------------------------------------------|


| /  slide up
| \  slide down
| h  hammer-on
| p  pull-off
| ~  vibrato
| +  harmonic
| x  Mute note

===============================================================================
Comments