Disturbed - Down With The Sickness Chords & Tabs

 

Down With The Sickness Chords & Tabs

Disturbed Chords & Tabs

Version: 8 Type: Tab 0 ratings
1 star 2 stars 3 stars 4 stars 5 stars
comments

Down With The Sickness Tab

   
Artist - Disturbed.
Song - Down With The Sickness.
Album - The Sickness(2000).
Tabbed By: Joe@Disturbed16

KEY: h- Hammer On.
     X- Palm Mute.
     R- Rub The String On And Off 
( Fuzz does this at the start on his bass ) - its kindof like hes using a turn
table on his strings if that helps any
P.S if u wanna see how he does it, go to Kazzaa and download Down With the
Sickness Live ( at the start David should have a strait jacket on with a hannible
mask ).

Tuning: Db Ab Db Gb Bb Eb

GREAT SONG!


At the beginning of the song before David goes Oh Ah Ah Ah Ah Fuzz plays this
cool riff by sliding his palm on the string of his guitar.

David says: Can u fell that?

Eb|----------------------------|
Bb|----------------------------|
Gb|----------------------------|
Db|0-0--0-0--0-0--0-0--0-0-0-0-| X4
Ab|0-0--0-0--0-0--0-0--0-0-0-0-|
Db|0-0--0-0--0-0--0-0--0-0-0-0-|
   R R  R R  R R  R R  R R R R 
(On this part its good to kind of mute the strings so they dont make any funny noises.)

O S#*t

Dan comes in with guitar riff:

Eb|--------------------|
Bb|--------------------|
Gb|--------------------|
Db|1-4-1-2-1-1-4-1-2-1-| X6
Ab|--------------------|
Db|--------------------|

OH AH AH AH AH

Eb|--------------------|
Bb|--------------------|
Gb|--------------------|
Db|1-4-1-2-1-1-4-1-2-1-| X6
Ab|1-4-1-2-1-1-4-1-2-1-|
Db|1-4-1-2-1-1-4-1-2-1-|

OH AH AH AH AH

Eb|--------------------|
Bb|--------------------|
Gb|--------------------|
Db|1-4-1-2-1-1-4-1-2-1-| X6
Ab|1-4-1-2-1-1-4-1-2-1-|
Db|1-4-1-2-1-1-4-1-2-1-|

OH OH X3

Eb|-------------|
Bb|-------------|
Gb|-------------|
Db|-0-0-0-0-0-0-| X1
Ab|-0-0-0-0-0-0-|
Db|-0-0-0-0-0-0-|
   -X-X-X-X-X-X-

VERSE:

Eb|----------------------|    |----------|
Bb|----------------------|    |----------|
Gb|----------------------|    |-------5--|
Db|-0-0-0-0-0--0-0-0-0-0-| X4 |-0-0--5---|
Ab|-0-0-0-0-0--0-0-0-0-0-|    |-0-0------|
Db|-0-0-0-0-0--0-0-0-0-0-|    |-0-0------|
   -X-X-X-X-X--X-X-X-X-X-      -X-X------

Eb|----------------------|    |-------------|
Bb|----------------------|    |-------------|
Gb|----------------------|    |-------------|
Db|-0-0-0-0-0--0-0-0-0-0-| X4 |-1-1-1-1-1-1-|
Ab|-0-0-0-0-0--0-0-0-0-0-|    |-1-1-1-1-1-1-|
Db|-0-0-0-0-0--0-0-0-0-0-|    |-1-1-1-1-1-1-|
   -X-X-X-X-X--X-X-X-X-X-

Eb|--------------------|    |-------------|
Bb|--------------------|    |-------------|
Gb|--------------------|    |-----------5-|
Db|1-4-1-2-1-1-4-1-2-1-| X4 |-1-4-1-2-5---|
Ab|1-4-1-2-1-1-4-1-2-1-|    |-1-4-1-2-----|
Db|1-4-1-2-1-1-4-1-2-1-|    |-1-4-1-2-----|
[ Tab from: http://www.guitartabs.cc/tabs/d/disturbed/down_with_the_sickness_tab_ver_8.html ]
Eb|--------------------|    |---|
Bb|--------------------|    |---|
Gb|--------------------|    |---|
Db|1-4-1-2-1-1-4-1-2-1-| X4 |-0-|
Ab|1-4-1-2-1-1-4-1-2-1-|    |-0-|
Db|1-4-1-2-1-1-4-1-2-1-|    |-0-|

CHORUS:

Eb|---------------------------------------------|    |---|
Bb|---------<5><5>-----------------<5>----------|    |---|
Gb|-----------------------------------<5>-------|    |---|
Db|-2--2-3-2------2-2-3-2--2--2-3-2-------2-3-2-| X2 |---|
Ab|-2--2-3-2------2-2-3-2--2--2-3-2-------2-3-2-|    |-7-|
Db|-2--2-3-2------2-2-3-2--2--2-3-2-------2-3-2-|    |---|

Eb|---------------------------------------------|    |------|
Bb|---------<5><5>-----------------<5>----------|    |------|
Gb|-----------------------------------<5>-------|    |------|
Db|-2--2-3-2------2-2-3-2--2--2-3-2-------2-3-2-| X2 |-1/12-|
Ab|-2--2-3-2------2-2-3-2--2--2-3-2-------2-3-2-|    |-1/12-|
Db|-2--2-3-2------2-2-3-2--2--2-3-2-------2-3-2-|    |-1/12-|

REPEAT VERSE

INTERLUDE:

Eb|-------------------|
Bb|-------------------|
Gb|-------------------|
Db|-------------------| X4
Ab|-------7-----------|
Db|-10-11---11-10-2-1-|

BRIDGE:

Eb|---------------------------|
Bb|---------------------------|
Gb|---------------------------|
Db|-4-XX-10-11-XX4-4-XX-10-11-| X8
Ab|-4-XX-10-11-XX4-4-XX-10-11-|
Db|-4-XX-10-11-XX4-4-XX-10-11-|

OUTRO:

Eb|--------------------------------|
Bb|--------------------------------|
Gb|--------------------------------|
Db|-4-7-4-5-4-4-7-4-5-4--4-7-4-5-4-| X4
Ab|--------------------------------|
Db|--------------------------------|
   -X-X-X-X-X-X-X-X-X-X--X-X-X-X-X-

         OH AH AH AH AH

Eb|--------------------------------|
Bb|--------------------------------|
Gb|--------------------------------|
Db|-4-7-4-5-4-4-7-4-5-4--4-7-4-5-4-| X8 END WITH POWER!
Ab|-4-7-4-5-4-4-7-4-5-4--4-7-4-5-4-|
Db|-4-7-4-5-4-4-7-4-5-4--4-7-4-5-4-|

LYRICS:

VERSE:

drowning deep in my sea of loathing
broken your servant i kneel
(will you give in to me)
it seems what's left of my human side is slowly changing in me
(will you give in to me)
looking at my own reflection
when suddenly it changes
violently it changes
there is no turning back now
you've woken up the demon in me

CHORUS:

get up, come on get down with the sickness
open up your hate and let it flow in to me
get up, come on get down with the sickness
you mother get up, come on get down with the sickness
you f*%ker get up, come on get down with the sickness
madness is the gift that has been given to me

VERSE 2:

i can see inside you the sickness is rising
don't try to deny what you feel
(will you give in to me)
it seems that all that was good has died
and is decaying me
(will you give in to me)
it seems you're having some trouble
in dealing with these changes
living with these changes
the world is a scary place
now that you've woken  up the demon in me

OUTRO:

madness has now come over me

BAND MEMBERS: 
David Draiman - Vocals.
Dan Donegan - Guitar.
Fuzz - Bass.
Mike Wengren - Drums.
Comments