Disturbed - Down With The Sickness Chords & Tabs

 

Down With The Sickness Chords & Tabs

Disturbed Chords & Tabs

Version: 6 Type: Tab 0 ratings
1 star 2 stars 3 stars 4 stars 5 stars
comments

Down With The Sickness Tab

   
Down With The Sickness-Disturbed
The Sickness

Drop Db:
Db Ab Db Gb Bb Eb

( ) = harmonics

Drum Intro:
then

x3 pm                                  then
e--------------------------------------    -----------------------
b--------------------------------------    -----------------------
g--------------------------------------    -----------------------
d-2-5-2-3-2---2-5-2-3-2---2-5-2-3------    -2-5-2-3-2---2-5-2-3-2-
a--------------------------------------    -----------------------
d--------------------------------------    -----------------------

x3
e-----------------------------------------------------------------
b-----------------------------------------------------------------
g-----------------------------------------------------------------
d-----------------------------------------------------------------
a-2---2---2---2---2---2---2---2-----------------------------------
d-2h5-2h3-2---2h5-2h3-2---2h5-2h3---------------------------------

e-----------------------------------------------------------------
b-----------------------------------------------------------------
g-----------------------------------------------------------------
d-----------------------------------------------------------------
a-2---2---2---2---2---2---2-3-3-3---------------------------------
d-2h5-2h3-2---2h5-2h3-2---2-3-3-3---------------------------------

x3
e-----------------------------------------------------------------
b-----------------------------------------------------------------
g-----------------------------------------------------------------
d-----------------------------------------------------------------
a-2---2---2---2---2---2---2---2-----------------------------------
d-2h5-2h3-2---2h5-2h3-2---2h5-2h3---------------------------------

e-----------------------------------------------------------------
b-----------------------------------------------------------------
g-----------------------------------------------------------------
d-----------------------------------------------------------------
a-2---2---2---2---3-3-3-3-3-3-3-3---------------------------------
d-2h5-2h3-2---2h5-3-3-3-3-3-3-3-3---------------------------------

Verses:

Riff A x7

e-----------------------------------------------------------------
b-----------------------------------------------------------------
g---------------------3-----4------5-----------4------------------
d-----------------------------------------------------------------
a-----------------------------------------------------------------
d-----------------------------------------------------------------

Riff A1
pm
e-----------------------------------------------------------------
b-----------------------------------------------------------------
g-----------------------------------------------------------------
d-----------------------------------------------------------------
a-----------------------------------------------------------------
d-2-2-2-2-2---2-2-2-2-2---2-2-2-2-2-2-2-2-2---2-2-2-2-2---2-2-2-2-

e-----------------------------------------------------------------
b-----------------------------------------------------------------
g--------------------------------------------------------------(5)
d------------------------------------------------------------(5)--
a-----------------------------------------------------------------
d-2-2-2-2-2---2-2-2-2-2---2-2-2-2-2-2-2-2-2---2-2-2-2-2---3-3-----

e-----------------------------------------------------------------
b-----------------------------------------------------------------
g-----------------------------------------------------------------
d-----------------------------------------------------------------
a-----------------------------------------------------------------
d-2-2-2-2-2---2-2-2-2-2---2-2-2-2-2-2-2-2-2---2-2-2-2-2---2-2-2-2-
[ Tab from: http://www.guitartabs.cc/tabs/d/disturbed/down_with_the_sickness_tab_ver_6.html ]
e-----------------------------------------------------------------
b-----------------------------------------------------------------
g-----------------------------------------------------------------
d-----------------------------------------------------------------
a-----------------------------------------------------------------
d-2-2-2-2-2---2-2-2-2-2---2-2-2-2-2-2-2-2-2---2-2-2-2-2---2-3-3-3-

e-----------------------------------------------------------------
b-----------------------------------------------------------------
g-----------------------------------------------------------------
d-----------------------------------------------------------------
a-----------------------------------------------------------------
d-2h5-2h3-2---2-2-2-2-2---2-2-2-2-2h5-2h3-2---2-2-2-2-2---2-2-2-2-

e-----------------------------------------------------------------
b-----------------------------------------------------------------
g--------------------------------------------------------------(5)
d------------------------------------------------------------(5)--
a-----------------------------------------------------------------
d-2h5-2h3-2---2-2-2-2-2---2-2-2-2-2h5-2h3-2---2-2-2-2-2---2-3-----

e-----------------------------------------------------------------
b-----------------------------------------------------------------
g-----------------------------------------------------------------
d-----------------------------------------------------------------
a-----------------------------------------------------------------
d-2h5-2h3-2---2-2-2-2-2---2-2-2-2-2h5-2h3-2---2-2-2-2-2---2-2-2-2-

e-----------------------------------------------------------------
b-----------------------------------------------------------------
g-----------------------------------------------------------------
d-----------------------------------------------------------------
a-----------------------------------------------------------------
d-2h5-2h3-2---2-2-2-2-2---2-2-2-2-2h5-2h3-2---2-2-2-2-2---2-3-3-3-

Chorus: Fig 1.

e-----------------------------------------------------------------
b---------------(5)(5)----------------------------(5)-------------
g---------------------------------------------------(5)-----------
d-----------------------------------------------------------------
a-2-------2-3-2--------2---2-3-2----2-------2-3-2-------2---2-3-2-
d-2-------2-3-2--------2---2-3-2----2-------2-3-2-------2---2-3-2-

e-----------------------------------------------------------------
b---------------(5)(5)----------------------------(5)-------------
g---------------------------------------------------(5)-----------
d-----------------------------------------------------------------
a-2-------2-3-2--------2---2-3-2----2-------2-3-2-------2---12-~~~
d-2-------2-3-2--------2---2-3-2----2-------2-3-2-------2---------

Bridge:

e-----------------------------------------------------------------
b-----------------------------------------------------------------
g-----------------------------------------------------------------
d-----------------------------------------------------------------
a--------------/3------4-----/7~~~~~~~~-x-x-/4---------3----x-x---
d-4~~~~~~-x-x---------------------------------------------------2-

e-----------------------------------------------------------------
b-----------------------------------------------------------------
g-----------------------------------------------------------------
d--------------------------------------------6---------5----x-x---
a--------------/3------4-----/7~~~~~~~~-x-x--4---------3----x-x-2-
d-4~~~~~~-x-x---------------------------------------------------2-

w/ whispering

e-----------------------------------------------------------------
b-----------------------------------------------------------------
g-------------------------------6---------------------------------
d---------------5------6--------4---------------5------6----------
a-4-------x-x---3------4----x-x------4-----x-x--3------4----------
d-4-------x-x---------------x-x------4-----x-x--------------------

Interlude/Outro
play intro 1 step up the fret board
2=4
5=7

you get it

thatís all

trevor jones
timmy91199@yahoo.ca
Comments