Disturbed - Down With The Sickness Chords & Tabs

 

Down With The Sickness Chords & Tabs

Disturbed Chords & Tabs

Version: 5 Type: Tab 0 ratings
1 star 2 stars 3 stars 4 stars 5 stars
comments

Down With The Sickness Tab

   
Disturbed
"Down with the sickness"
The sickness
Tabbed by: Diego "changfoogibperez"(changfoo33@yahoo.com)
Drop d tuning (d,A,d,G,B,e)

x = mute
/ = slide up
\ = slide down
~ = vibrato
pm= palm mute

Intro

First part just drums
-----------------------------
-----------------------------
-----------------------------
-----------------------------
-----------------------------
-----------------------------

then:"can you feel that"
but I think the bass is the one doin' this

-----------------------------
-----------------------------
-----------------------------
--x-x--x-x--x-x--x-x---x--x--x4
--x-x--x-x--x-x--x-x---x--x--
--x-x--x-x--x-x--x-x---x--x--

"ahh shit"
----------------------------------                 ------------------------
----------------------------------                 ------------------------
----------------------------------                 ------------------------
---------------------------------- last time only  ------------------------
--6-9-7-9-6---6-9-7-9-6--6-9-7-9--   play this     --6-9-7-9-6--6-9-7-9-6--
----------------------------------                 ------------------------
pm - - - - -   - - - - -  - - - -                       - - - - -  - - - - -

"uggh wah ah ah ah..."

-----------------------------------           -----------------------------------
-----------------------------------           -----------------------------------
-----------------------------------           -----------------------------------
--1-4-2-4-1---1-4-2-4-1---1-4-2-4-- last time --1-4-2-4-1--1-4-2-4-1----2-2-2-2--
--1-4-2-4-1---1-4-2-4-1---1-4-2-4--           --1-4-2-4-1--1-4-2-4-1----2-2-2-2--
--1-4-2-4-1---1-4-2-4-1---1-4-2-4--           --1-4-2-4-1--1-4-2-4-1----2-2-2-2--
pm                                                                         - - - -


verse
First part
-----------------------------------                --x--x---
-----------------------------------                --x--x---
----------------------------------- at the end     --x--x---
--1-1-1-1-1---1-1-1-1-1---1-1-1-1-- of fourth time ---------
--1-1-1-1-1---1-1-1-1-1---1-1-1-1--                ---------
--1-1-1-1-1---1-1-1-1-1---1-1-1-1--                ---------
pm - - - - -   - - - - -   - - - -


Second part
------------------------------------       --x--x----
------------------------------------       --x--x----
------------------------------------       --x--x----
-2-2-2-2-2---1-4-2-4-1---1-1-1-1-1--       ----------
-2-2-2-2-2---1-4-2-4-1---1-1-1-1-1--       ----------
-2-2-2-2-2---1-4-2-4-1---1-1-1-1-1--       ----------

then

---------------
---------------
---------------
--2-2-2-2-2-2--
--2-2-2-2-2-2--
--2-2-2-2-2-2--

chorus
[ Tab from: http://www.guitartabs.cc/tabs/d/disturbed/down_with_the_sickness_tab_ver_5.html ]
------------x--x----------------------------x--x-------------------
------------x--x----------------------------x--x-------------------
------------x--x----------------------------x--x-------------------
--1--1\2/1------------1-1\2/1-----1--1\2/1--------------1----------
--1--1\2/1------------1-1\2/1-----1--1\2/1--------------1-----13~--
--1--1\2/1------------1-1\2/1-----1--1\2/1--------------1----------

At the end of chorus

----          ----------
----          ----------
----          ----------
-1-- let ring --13////--
-1-- and then --13////--
-1--          --13////--

verse

chorus

bridge (follow the exact patern that it's written here)
------------------------------------------------------------------------------------
------------------------------------------------------------------------------------
------------------------------------------------------------------------------------
-----x-x-----------x-x-----------x-x-----------x-x-----------x-x-----------x-x------
-----x-x--2-3--\6~-x-x--3-2------x-x--2-3--\6~-x-x--3-2------x-x--2-3--\6~-x-x------
--3~-x-x-----------x-x-------1-3-x-x-----------x-x-------1-3-x-x-----------x-x------

------------------------------------------------------------------------------------
------------------------------------------------------------------------------------
------------------------------5-4-----------4-5-----------4-5--------4-5------------
-----------x-x-----------x-x--5-4--1-3-x-x--4-5--3-3-x-x--4-5-3-x-x--4-5--3-3-x-x---
--3-2------x-x--2-3--\6~-x-x--3-2--1-3-x-x--2-3--3-3-x-x--2-3-3-x-x--2-3--3-3-x-x---
-------1-3-x-x-----------x-x-------1-3-x-x-------3-3-x-x------3-x-x-------3-3-x-x---

------------------------------------------------------------------------------------
------------------------------------------------------------------------------------
--4-5--------4-5-----------4-5--------4-5-----------4-5--------4-5--------4-5-------
--4-5-3-x-x--4-5--3-3-x-x--4-5-3-x-x--4-5--3-3-x-x--4-5-3-x-x--4-5-3-x-x--4-5-3-x-x-
--2-3-3-x-x--2-3--3-3-x-x--2-3-3-x-x--2-3--3-3-x-x--2-3-3-x-x--2-3-3-x-x--2-3-3-x-x-
------3-x-x-------3-3-x-x------3-x-x-------3-3-x-x------3-x-x------3-x-x------3-x-x-

-----------------------------------------------------------------------
-----------------------------------------------------------------------
--4-5-----------4-5--------4-5-----------4-5--------4-5-----------4-5--
--4-5--3-3-x-x--4-5-3-x-x--4-5--3-3-x-x--4-5-3-x-x--4-5--3-3-x-x--4-5--
--2-3--3-3-x-x--2-3-3-x-x--2-3--3-3-x-x--2-3-3-x-x--2-3--3-3-x-x--2-3--
-------3-3-x-x------3-x-x-------3-3-x-x------3-x-x-------3-3-x-x-------

Outro
-----------------------------------------            ----------------------------
-----------------------------------------            ----------------------------
----------------------------------------- last time  ----------------------------
----------------------------------------- only this  ----------------------------
--8-11-9-11-8---8-11-9-11-8---8-11-9-11--            -8-11-9-11-8---8-11-9-11-8--
-----------------------------------------            ----------------------------
pm - -- - -- -   - -- - -- -   - -- - --                 - -- - -- -   - -- - -- -

--------------------------------       ----------
--------------------------------       ----------
--------------------------------       ----------
--3-6--3-3---3-6-4-6-3---3-6-3-- fill  -4-4-4-4--
--3-6--3-3---3-6-4-6-3---3-6-3--       -4-4-4-4--
--3-6--3-3---3-6-4-6-3---3-6-3--       -4-4-4-4--

any corrections i'll be pleased to know them.
Comments