Disturbed - Down With The Sickness Chords & Tabs

 

Down With The Sickness Chords & Tabs

Disturbed Chords & Tabs

Version: 4 Type: Tab 0 ratings
1 star 2 stars 3 stars 4 stars 5 stars
comments

Down With The Sickness Tab

SONG: DOWN WIT THE SICKNESS
BY: DISTURBED
CD: DOWN WITH THE SICKNESS
INTERPRETED BY: JASON COLLINS

***INTRO: FIRST DRUMS KICK IN,THEN****

E-------------------------------------------------------
B-------------------------------------------------------
G-------------------------------------------------------
D----(1)XXXX---XXXXX---XXXX-----------------------------
A----(1)XXXX---XXXXX---XXXX-----REPEAT 4X---------------
D----(1)XXXX---XXXXX---XXXX-----------------------------
   X=(PM 1ST FRET)5 STROKES TWICE THEN 4  STROKES ONCE THEN REPEAT 
3 MORE X UNTIL HE BREAKS IN WITH " OOO AH AH AH AH"...... THEN-

E-------------------------------------------------------
B-------------------------------------------------------
G-------------------------------------------------------
D--1--4--1--2--1-----1--4--1--2--1-----1--4--1--1-------
A--1--4--1--2--1-----1--4--1--2--1-----1--4--1--1-------
D--1--4--1--2--1-----1--4--1--2--1-----1--4--1--1-------
[ Tab from: http://www.guitartabs.cc/tabs/d/disturbed/down_with_the_sickness_tab_ver_4.html ]
PLAY THIS 4X AND ON THE 4TH ADD THIS.
                                                                               V
D---------------------------------------------1--2222-0--------------
A---------------------------------------------1--2222-0--------------
D---------------------------------------------1--2222-0--------------

WHEN THE CHORUS BREAKS IN... "GET UP YOURE       
MUGGIN DOWN WIT THE SICKNESS" PLAY THIS....

E------------------------------------------------------
B------------------------------------------------------
G------------------------------------------------------
D---0--0--0h1--0--x-----0--0h1--0----------------------
A---0--0--0h1--0--x-----0--0h1--0-----REPEAT 4X--------
D---0--0--0h1--0--x-----0--0h1--0----------------------
   REPEAT 4X AND LET LAST OPEN CHORD RING OUT.

--THIS IS THE BASICS OF THE SONG, I WAS FRONT ROW CENTER AT A 
LOCAL RADIO STATION CONCERT HERE IN AUSTIN AND GOT TO SEE THIS MUCH 
OF HOW THEY PLAY THIS TUNE. I MISSED SEEING HOW THE REST IS PLAYED 
WHEN HE GOES OFF ABOUT "NO MOMMY , I'LL BE A GOOD BOY..."  AND ALL 
THAT FUNKY SHIT BUT I MAY BE OFF JUST A BIT. I SAT DOWN AND PLAYED 
ALONG WITH THE CD AND IT'S PRETTY DAMN CLOSE, IT COULD USE SOME 
IMPROVEMENT I'M SURE. BUT THIS WILL SUFFICE AND GET YOU STARTED.... 
Comments