Disturbed - Down With The Sickness Chords & Tabs

 

Down With The Sickness Chords & Tabs

Disturbed Chords & Tabs

Version: 3 Type: Tab 0 ratings
1 star 2 stars 3 stars 4 stars 5 stars
comments

Down With The Sickness Tab

   
Disturbed
Chris.
 Guitar6582@aol.com.
  url 
 
Hey, i was looking at your tabs for \"Down With The Sickness\" by Disturbed, 
and it`s all wrong..it`s like this :
intro:

E-------------------
B--------------------
G-----------------
D2-5-2-3-2-2-5-2-3-2
A----------------
D-------------

E-----------
B-------------
G---------
D2-5-2-3-2-5-2-3-2------
A-----------
D------------

GO OVER THAT A COUPLE TIMES

THEN THE HEAVY PART KICKS IN DOING THE SAME THING EXCEPT W/ THE FULL POWERCHORDS LIKE THIS:
(FIG.2)
E-----------
B---------
G---------------
D2-5-2-3-2----2-5-3-3-2-5-2-32
A2-5-2-3-2 2X-2-5-2-3-2-5-2-32
D2-5-2-3-2----2-5-2-3-2-5-2-32

THEN THE VERSES ARE LIKE THIS, U FIGURE OUT THE BEAT..
[ Tab from: http://www.guitartabs.cc/tabs/d/disturbed/down_with_the_sickness_tab_ver_3.html ]
E------
B------
G----------
D2-2-2-2--
A2-2-2-2--
D2-2-2-2-----

THEN HE KICKS BACK IN W/ FIG.2

THEN THE CHORUS:
E------------
B----------5H-5H---
G------------------
D2-2-2-2----------2-2-2-3
A2-2-2-2----------2-2-2-3
D2-2-2-2----------2-2-2-3

E----------------
B------5H--
G---------5H
D2-2-2------------
A2-2-2---------
D2-2-2---------

THEN THE BRIDGE IS:

D6-6-7-0X---------
A6-4-5-0X--------REPEAT
D6-----0X--------

THEN THE LAST PART IS THE SAME THING U PLAYED IN THE BEGINNING EXCEPT FOR IT`S IN THE KEY OF F#, WHICH MEANS, PLAY IT 2 FRETS UP FROM WHERE U PLAYED THE INTRO AND HEAVY PART...IT`S ACCURATE, IF U HAVE N E QUESTIONS, E-MAIL ME

 
:: Ultimate Guitar Archive :: 
http://www.ultimate-guitar.com 



Comments