Disturbed - Down With The Sickness Chords & Tabs

 

Down With The Sickness Chords & Tabs

Disturbed Chords & Tabs

Version: 11 Type: Tab 0 ratings
1 star 2 stars 3 stars 4 stars 5 stars
comments

Down With The Sickness Tab

Disturbed
Down With the Sickness

This sounds right to me. Rate please!

Tuning:  step down drop D

(.) - palm mute
(~) - let note ring
(*) - harmonic
(b) - bend
(\) - slide up


|-----------------------------------
|-----------------------------------
|-----------------------------------
|----------------------------------- x3
|--7-10-7-8-7--7-10-7-8-7--7-10-7-8-
|-----------------------------------
   . .  . . .  . .  . . .  . .  . .

|------------------------
|------------------------
|------------------------
|------------------------
|--7-10-7-8-7--7-10-7-8-7
|------------------------
   . .  . . .  . .  . . .

"oo ah ah ah ah!" 

                                            last time do..
|---------------------------------        |--------------------------------
|---------------------------------        |--------------------------------
|---------------------------------        |--------------------------------
|--2-5-2-3-2---2-5-2-3-2---2-5-2-3  x3    |--2-5-2-3-2---2-5-2-3-2--3-3-3-3
|--2-5-2-3-2---2-5-2-3-2---2-5-2-3        |--2-5-2-3-2---2-5-2-3-2--3-3-3-3
|--2-5-2-3-2---2-5-2-3-2---2-5-2-3        |--2-5-2-3-2---2-5-2-3-2--3-3-3-3

repeat this twice

|-------------------------------
|-------------------------------
|-------------------------------
|--2-2-2-2-2--2-2-2-2-2--2-2-2-2  repeat alot
|--2-2-2-2-2--2-2-2-2-2--2-2-2-2
|--2-2-2-2-2--2-2-2-2-2--2-2-2-2
   . . . . .  . . . . .  . . . .

then                                         repeat 8th time but end on
|-------------------------------         |----
|-------------------------------         |----
|-------------------------------         |----
|------------------------------- x7      |--3~
|-------------------------------         |--3~
|--2-5-2-3-2--2-2-2-2-2--2-2-2-2         |--3~


Chorus
|---------------*-*-----------------------------*--
|---------------5-5-----------------------------5-*
|-------------------------------------------------5
|--2--2-2-2-2---------2-2-3-2-0----2--2-2-2-2------
|--2--2-2-2-2---------2-2-3-2-0----2--2-2-2-2------
|--2--2-2-2-2---------2-2-3-2-0----2--2-2-2-2------
[ Tab from: http://www.guitartabs.cc/tabs/d/disturbed/down_with_the_sickness_tab_ver_11.html ]
|---------------*-*-----------------------------*----------
|---------------5-5-----------------------------5-*--------
|-------------------------------------------------5--------
|--2--2-2-2-2---------2-2-3-2-0----2--2-2-2-2--------2-----
|--2--2-2-2-2---------2-2-3-2-0----2--2-2-2-2--------2-----
|--2--2-2-2-2---------2-2-3-2-0----2--2-2-2-2--------2--\9b



|---------------*-*-----------------------------*--
|---------------5-5-----------------------------5-*
|-------------------------------------------------5
|--2--2-2-2-2---------2-2-3-2-0----2--2-2-2-2------
|--2--2-2-2-2---------2-2-3-2-0----2--2-2-2-2------
|--2--2-2-2-2---------2-2-3-2-0----2--2-2-2-2------

|---------------*-*-----------------------------*------------------
|---------------5-5-----------------------------5-*----------------
|-------------------------------------------------5----------------
|--2--2-2-2-2---------2-2-3-2-0----2--2-2-2-2---------2-2-3-2-0--2~
|--2--2-2-2-2---------2-2-3-2-0----2--2-2-2-2---------2-2-3-2-0--2~
|--2--2-2-2-2---------2-2-3-2-0----2--2-2-2-2---------2-2-3-2-0--2~


Interlude
|-----------------------------
|-----------------------------
|-----------------------------
|-----------------------------  x3
|------3--4---\7---4--3-------
|--4b---------------------2--4

then
|----------------------------
|----------------------------
|----------------------------
|------------------6--5--2--4
|------3--4---\7---4--3--2--4
|--4b--------------------2--4

|---------------------
|---------------------
|---------------------
|--5--6--4--4---5--6-4   repeat many times
|--3--4--4--4---3--4-4
|--------4--4--------4


|--------------------------------
|--------------------------------
|--------------------------------
|--4-7-4-5-4---4-7-4-5-4--4-7-4-5  
|--------------------------------
|--------------------------------
   . . . . .   . . . . .  . . . .

|---------------------------------
|---------------------------------
|---------------------------------
|--4-7-4-5-4---4-7-4-5-4---4-7-4-5   repeat a few times
|--4-7-4-5-4---4-7-4-5-4---4-7-4-5
|--4-7-4-5-4---4-7-4-5-4---4-7-4-5


End
Comments