Disturbed - Down With The Sickness Chords & Tabs

 

Down With The Sickness Chords & Tabs

Disturbed Chords & Tabs

Version: 1 Type: Chords 0 ratings
1 star 2 stars 3 stars 4 stars 5 stars
comments

Down With The Sickness Chords

Well...this is my first time to send...well here it goes!

Author/Artist: Disturbed
Title: Down With The Sickness
Album: The Sickness
Transcribed by: st2012
if u have any comments,suggestions,questions,or anything...
Email:wwe_disturbed2000@yahoo.co.nz

-------------------------here is it----------------------------------------

droped D tuning down one half step.

--------------------------------|--------------------------------|------------|
--------------------------------|--------------------------------|------------|
--------------------------------|--------------------------------|------------|
-2-5-2-3-2---2-5-2-3-2--2-5-2-3-|-2---2---2---2---2---2---2---2--|------------|
--------------------------------|-2---2---2---2---2---2---2---2--|------------|
--------------------------------|-2h5-2h3-2---2h5-2h3-2---2h5-2h3|------------|
 verse:

--------------------------------|---------------------------------------------|
--------------------------------|----------5^---------------------------------|
--------------------------------|-------5^------------------------------------|
--------------------------------|---------------------------------------------|
--------------------------------|---------------------------------------------|
-2-2-2-2-2---2-2-2-2-2---2-2-2-2|---3-3---------------------------------------|

[ Tab from: http://www.guitartabs.cc/tabs/d/disturbed/down_with_the_sickness_crd.html ]
--------------------------------|---------------------------------------------|
--------------------------------|---------------------------------------------|
--------------------------------|---------------------------------------------|
-2---2---2---2-2-2-2-2---2-2-2-2|---------------------------------------------|
-2---2---2---2-2-2-2-2---2-2-2-2|---------------------------------------------|
-2h5-2h3-2---2-2-2-2-2---2-2-2-2|---------------------------------------------|
 chorus:

------------------------------------------------------------------------------|
--------------5^-5^-------------------------5^--------------------------------|
-----------------------------------------------5^-----------------------------|
-2--2-2-3-2----------2-2-3-2---2--2-2-3-2----------2-2-3-2--------------------|
-2--2-2-3-2----------2-2-3-2---2--2-2-3-2----------2-2-3-2--------------------|
-2--2-2-3-2----------2-2-3-2---2--2-2-3-2----------2-2-3-2--------------------|
  break 1:                             break 2:

-------------------------------------|---------------------------------------|
-------------------------------------|---------------------------------------|
-------------------------------------|----------5--6-------------------5--6--|
-----x-x--------------x-x------------|-4---x-x--5--6---x-x--4-4---x-x--5--6--|
-----x-x--3--4---/7---x-x--/3--2-----|-4---x-x--3--4---x-x--4-4---x-x--3--4--|
-4---x-x--------------x-x---------2--|-4---x-x---------x-x--4-4---x-x--------|
                                    outro:

---------------------------------|--------------------------------------------|
---------------------------------|--------------------------------------------|
---------------------------------|--------------------------------------------|
-4-7-4-5-4---4-7-4-5-4---4-7-4-5-|-4-7-4-5-4---4-7-4-5-4---4-7-4-5------------|
---------------------------------|-4-7-4-5-4---4-7-4-5-4---4-7-4-5------------|
---------------------------------|-4-7-4-5-4---4-7-4-5-4---4-7-4-5------------|

Sorry kung may mali...14 yrs.old pa lang po kasi ako...

Tabs by:Glare Barroa
Comments