Disturbed - Devour Chords & Tabs

 

Devour Chords & Tabs

Disturbed Chords & Tabs

Version: 1 Type: Tab 0 ratings
1 star 2 stars 3 stars 4 stars 5 stars
comments

Devour Tab

   
Song:Devour
Artist: Disturbed
Album: Believe
Guitarist: Dan Donegan

Tuning: Drop D, 1/2 Step Down (Db,Ab,Db,Gb,Bb,Eb)

INTRO:
|------------------------------------------------------------------|
|------------------------------------------------------------------|
|---5---4---2-4-5---5---2-4-5--------5---4---2-4-5---2---0---------|
|-------------------------------5----------------------------1-----|
|-2---2---2-------2---2-------3----2---2---2-------0---0---0---2---|
|----------------------------------------------------------------3-|

|------------------------------------------------------------------|
|------------------------------------------------------------------|
|---5---4---2-4-5---5---2-4-5--------5---4---2-4-5---2---0-------0-|
|-------------------------------5----------------------------1-----|
|-2---2---2-------2---2-------3----2---2---2-------0---0---0---0---|
|------------------------------------------------------------------|

VERSE:
|----------------------------------------------------|
|----------------------------------------------------|
|---5---4---2-4-5------5---4---2-4-5---2---0---------|
|----------------------------------------------1-----|
|-2---2---2----------2---2---2-------0---0---0---2---|
|--------------------------------------------------3-|
pm.   .   .          .   .   .       .   .   .

|----------------------------------------------------|
|----------------------------------------------------|
|---5---4---2-4-5------5---4---2-4-5---2---0-------0-|
|----------------------------------------------1-----|
|-2---2---2----------2---2---2-------0---0---0---0---|
|----------------------------------------------------|
pm.   .   .          .   .   .       .   .   .

BRIDGE:
|-----------------------------|
|-----------------------------|
|-----------------------7-9-9-|
|-9-9-9--9--9-9--9-9-9--7-9-9-|
|-9-9-9--9--9-9--9-9-9--5-7-7-|
|-9-9-9--9--9-9--9-9-9--------|
[ Tab from: http://www.guitartabs.cc/tabs/d/disturbed/devour_tab.html ]
CHORUS:
|-----------------------------------------------------|
|-------------------------------7-77------------------|
|------------------7-77-666-----5-55-777--------------|
|-9-7-5-55-555-0-0-4-44-444-9-7-5-55-555-2-2-4-44-444-|
|-9-7-5-55-555-0-0-4-44-444-9-7-5-55-555-2-2-4-44-444-|
|-9-7-5-55-555-0-0-4-44-444-9-7-5-55-555-2-2-4-44-444-|

POSTCHORUS:
|------------------------------------------------------------------|
|------------------------------------------------------------------|
|---5---4---2-4-5---5---2-4-5--------5---4---2-4-5-2--5------------|
|-------------------------------5------------------2--5------------|
|-2---2---2-------2---2-------3----2---2---2-------0--3------------|
|------------------------------------------------------------------|

VERSE 2:
|------------------------------------------------------------------|
|------------------------------------------------------------------|
|---5---4---2-4-5---5---2-4-5--------5---4---2-4-5---2---0---------|
|-------------------------------5----------------------------1-----|
|-2---2---2-------2---2-------3----2---2---2-------0---0---0---2---|
|----------------------------------------------------------------3-|
pm.   .   .       .   .       .    .   .   .       .   .   .

|------------------------------------------------------------------|
|------------------------------------------------------------------|
|---5---4---2-4-5---5---2-4-5--------5---4---2-4-5---2---0-------0-|
|-------------------------------5----------------------------1-----|
|-2---2---2-------2---2-------3----2---2---2-------0---0---0---0---|
|------------------------------------------------------------------|
pm.   .   .       .   .       .    .   .   .       .   .   .   .

INTERLUDE:
|------------------------------|
|------------------------------|
|------------------------------|
|------------------------------|
|------------------------------|
|-9--9-9--9-9-9--9-9-9-9-10-10-|

INTERLUDE 2:
|------------------------------|
|------------------------------|
|------------------------------|
|-9--9-9--9-9-9--9-9-9-9-10-10-|
|-9--9-9--9-9-9--9-9-9-9-10-10-|
|-9--9-9--9-9-9--9-9-9-9-10-10-|

OUTRO:
|---------------------------------|
|---------------------------------|
|---5---4---2-4-5---5---2-4-5-----|
|-------------------------------5-|
|-2---2---2-------2---2-------3---|
|---------------------------------|
Comments