Disturbed - Devour Chords & Tabs

 

Devour Chords & Tabs

Disturbed Chords & Tabs

Version: 2 Type: Bass Tab 0 ratings
1 star 2 stars 3 stars 4 stars 5 stars
comments

Devour Bass Tab

   
Tuning-Bb, Db, Ab, Db, Gb

Intro
Gb-------2----------------|
Db----4-------------4-----|  x2
Ab-2-------------2-----0--|
Db------------------------|
Bb------------------------|

Verse
Gb-------2---------------------------2-----------------|
Db----4-------------4-------------4--------------4-----|
Ab-2-------------2-----0-------2--------------2-----0--|
Db-----------------------------------------------------|
Bb-----------------------------------------------------|

Gb------------------------------------------------------|
Db------------------------------------------------------|
Ab-0--2--2h3-2--0--2--2h3-2---0--2--2h3-2--0--2--2h3-2--|
Db------------------------------------------------------|
Bb------------------------------------------------------|

Gb----------------------------------------------------|
Db----------------------------------------------------|
Ab-0--2--2h3-2--0--2--2h3--2--0--2--2h3-2--0--2--2h3--|
Db----------------------------------------------------|
Bb----------------------------------------------------|

Gb---------------------------------------|
Db---------------------------------------|
Ab---------------------------------------|
Db------------------------------0--2--2--|
Bb-0-0-0-----0--0-0---0-0-0--------------|

Chorus
Gb------------------------------------------------------------|
Db------------------------------------------------------------|
Ab-----------------5-------------------------4----------------|
Db-/9--7--5--5-5-5---5-5-5--0--0--0-4--4-4-4---4-4/9--7--7-5--|
Bb------------------------------------------------------------|

Gb-----------------------------------------|
Db-----------------------------------------|
Ab-------5---------------------------------|
Db-5-5-5---5-5--2--2--2-4--4-4-4-4-4-4-4/--|
Bb-----------------------------------------|

Gb------------------------------------------------------------|
Db------------------------------------------------------------|
Ab-----------------5-------------------------4----------------|
Db-/9--7--5--5-5-5---5-5-5--0--0--0-4--4-4-4---4-4/9--7--7-5--|
Bb------------------------------------------------------------|

Gb--------------------------------------|
Db--------------------------------------|
Ab-------5------------------------------|
Db-5-5-5---5-5--2--2--2-4--4-4-4-4-4-2--|
Bb--------------------------------------|

(1:17)
Gb----------------------|
Db----------------------|
Ab----------------------|
Db------------7-----10--|
Bb----------------------|

Verse
Gb-------2---------------------------2-----------------|
Db----4-------------4-------------4--------------4-----|
Ab-2-------------2-----0-------2--------------2-----0--|
Db-----------------------------------------------------|
Bb-----------------------------------------------------|

Gb------------------------------------------------------|
Db------------------------------------------------------|
Ab-0--2--2h3-2--0--2--2h3-2---0--2--2h3-2--0--2--2h3-2--|
Db------------------------------------------------------|
Bb------------------------------------------------------|
[ Tab from: http://www.guitartabs.cc/tabs/d/disturbed/devour_btab_ver_2.html ]
Gb----------------------------------------------------|
Db----------------------------------------------------|
Ab-0--2--2h3-2--0--2--2h3--2--0--2--2h3-2--0--2--2h3--|
Db----------------------------------------------------|
Bb----------------------------------------------------|

Gb---------------------------------------|
Db---------------------------------------|
Ab---------------------------------------|
Db------------------------------0--2--2--|
Bb-0-0-0-----0--0-0---0-0-0--------------|

Chorus
Gb------------------------------------------------------------|
Db------------------------------------------------------------|
Ab-----------------5-------------------------4----------------|
Db-/9--7--5--5-5-5---5-5-5--0--0--0-4--4-4-4---4-4/9--7--7-5--|
Bb------------------------------------------------------------|

Gb-----------------------------------------|
Db-----------------------------------------|
Ab-------5---------------------------------|
Db-5-5-5---5-5--2--2--2-4--4-4-4-4-4-4-4/--|
Bb-----------------------------------------|

Gb------------------------------------------------------------|
Db------------------------------------------------------------|
Ab-----------------5-------------------------4----------------|
Db-/9--7--5--5-5-5---5-5-5--0--0--0-4--4-4-4---4-4/9--7--7-5--|
Bb------------------------------------------------------------|

Gb-----------------------------------------|
Db-----------------------------------------|
Ab-------5---------------------------------|
Db-5-5-5---5-5--2--2--2-4--4-4-4-4-4-2--0--|
Bb-----------------------------------------|

Bridge
Gb-----------------------------|
Db-----------------------------|  x8
Ab-----------------------------|
Db-----------------------------|
Bb-0--0-0--0-0-0--0-0-0-0-1-1--|

Chorus
Gb------------------------------------------------------------|
Db------------------------------------------------------------|
Ab-----------------5-------------------------4----------------|
Db-/9--7--5--5-5-5---5-5-5--0--0--0-4--4-4-4---4-4/9--7--7-5--|
Bb------------------------------------------------------------|

Gb-----------------------------------------|
Db-----------------------------------------|
Ab-------5---------------------------------|
Db-5-5-5---5-5--2--2--2-4--4-4-4-4-4-4-4/--|
Bb-----------------------------------------|

Gb------------------------------------------------------------|
Db------------------------------------------------------------|
Ab-----------------5-------------------------4----------------|
Db-/9--7--5--5-5-5---5-5-5--0--0--0-4--4-4-4---4-4/9--7--7-5--|
Bb------------------------------------------------------------|

Gb--------------------------------------|
Db--------------------------------------|
Ab-------5------------------------------|
Db-5-5-5---5-5--2--2--2-4--4-4-4-4-4-2--|
Bb--------------------------------------|

Outro
Gb-------------------------------------------------------|
Db----10-----9-------9-10-----10-----9-------9-10--------|  x4
Ab----------------12----------------------12---------10--|
Db-9------9-----9----------9------9-----9---------10-----|
Bb-------------------------------------------------------|

Thanks, please rate it after you learn it.
Comments