Disturbed - Devour Chords & Tabs

 

Devour Chords & Tabs

Disturbed Chords & Tabs

Version: 1 Type: Bass Tab 0 ratings
1 star 2 stars 3 stars 4 stars 5 stars
comments

Devour Bass Tab

   
Song: Devour
Artist: Disturbed
Album: Believe

Tabbed by: Cuthbert NgpTaN
Tuning: C# G# C# F#


INTRO:
F# --------------------------------------------------------------------|
C# -------7-------------------------7----------------------------------|
G# ----9------------9-------9----9------------9-----9------------------|
C# -9------------9-----7------9------------9-----7---------------------|


VERSE:
F# --------------------------------------------------------------------|
C# -------7-------------------------7----------------------------------|
G# ----9------------9-------9----9------------9-----9------------------|
C# -9------------9-----7------9------------9-----7---------------------|

F# ----------------------------------------------------------|
C# ----------------------------------------------------------|
G# ----------------------------------------------------------|
C# -9-10-9-10-9----7-8-9-10-9----9-10-9-10-9----7-8-9-10-9---|

[ Tab from: http://www.guitartabs.cc/tabs/d/disturbed/devour_btab.html ]
PRE-CHORUS:
F# --------------------------------------------------------------------|
C# --------------------------------------------------------------------|
G# -2-2-2------2---2-2------2-2-2------5---7-7-------------------------|
C# --------------------------------------------------------------------|


CHORUS(2x):
F# --------------------------------------------------------------------|
C# --------------------------------------------------------------------|
G# ------------------------5-------------------------------------------|
C# -9----7----5------5--5-----5--0----0----4----4---4---4--------------|

F# --------------------------------------------------------------------|
C# --------------------------------------------------------------------|
G# --------------------------------------------------------------------|
C# -9----7----5----5-5-5-5-0-0-0-2----2----4----4---4---4--------------|


VERSE
CHORUS


BRIDGE:
F# -------------------------------------|
C# -------------------------------------|
G# -2----2-2----2-2-2----2-2-2-2-3-3----| 8x
C# -------------------------------------|


CHORUS


OUTRO:
F# -----------------------------------|
C# -----------------------------------|
G# -2-3-2-2-2-0-2-3-2-3-2-0-2-3-0-----| 4x
C# -------------------------------5---|

Thanks......
comments >>>> snowblind_cuth@yahoo.ca
Comments