Disturbed - Dehumanized Chords & Tabs

 

Dehumanized Chords & Tabs

Disturbed Chords & Tabs

Version: 3 Type: Tab 0 ratings
1 star 2 stars 3 stars 4 stars 5 stars
comments

Dehumanized Tab

Band- Disturbed
Song- Dehumanized
Album- Music As A Weapon II
Tuning- Tune down 1/2 step:Drop D

Intro/Verse
|---------------------------------------------|
|-----------------4x--------------------------|
|---------------------------------------------|
|---------------------------------------------|
|------5----------5----------5----------5-----|
|-0000---000-8888---888-2222---222-7777---777-|
P.M...   ... ....   ... ....   ... ....   ...

|-------------------------------------------|
|-------------------------------------------|
|-------------------------------------------|
|-------------------------------------------|
|------5----------5----------5----------5-6-|
|-0000---000-8888---888-2222---222-7777-----|
P.M...   ... ....   ... ....   ... ....
[ Tab from: http://www.guitartabs.cc/tabs/d/disturbed/dehumanized_tab_ver_3.html ]
Pre-Chorus
|------------------------------------------------------------------------|
|-----4--------------------4--------------4--------------------4-4-4-4-4-|
|-----3-------------5*-----3--------------3--------------------3-3-3-3-3-|
|-000---00-00----5*----000---00-00-00-000---00-00----5*----000---2-2-2-2-|
|-000---00-00-5*-------000---00-00-00-000---00-00-5*----5*-000-----------|
|-000---00-00----------000---00-00-00-000---00-00----------000-----------|
P.M..   .. ..          ...   .. .. .. ...   .. ..          ...

Chorus
|-------------------------------------------|-----------------|
|--------------2x---------------------------|-----------------|
|------------------------5------------------|-----------------|
|-0-xxx-0-0000-33xx-333x-5-5/8xx-888x-8-888-|-000-000-000-000-|
|-0-xxx-0-0000-33xx-333x-3-5/8xx-888x-8-888-|-000-000-000-000-|
|-0-xxx-0-0000-33xx-333x---5/8xx-888x-8-888-|-000-000-000-000-|
P.M.                                          ... ... ... ...

Bridge
|-----------------------------|----|
|---------------------2x------|-4/-|
|--------3322-----------------|-3/-|
|-3-5-1111111-3-5-1-3-5555555-|-2/-|
|-3-5-1111111-3-5-1-3-5555555-|----|
|-3-5-1111111-3-5-1-3-5555555-|----|

This is the heaviest song by Disturbed. I hope to see more of this on Disturbed's next album.
Comments