Disturbed - Dehumanized Chords & Tabs

 

Dehumanized Chords & Tabs

Disturbed Chords & Tabs

Version: 1 Type: Bass Tab 0 ratings
1 star 2 stars 3 stars 4 stars 5 stars
comments

Dehumanized Bass Tab

   
Band- Disturbed
Song- Dehumanized

Gtr I (Bb Db Ab Db Gb) - 'Fuzz'

 Intro
  Moderate Rock Q=94
 4/4
  Gtr I
  Wx4
|--------||
|--------||
|--------||
|--------||
|--------||


   Verse
    S S S S S S S S S S S S S S S S   S S S S S S S S S S S S S S S S
||----------------------------------|----------------------------------|
||o---------------------------------|----------------------------------|
||----------5---------------5-------|---------5---------------5--------|
||o-0-0-0-0---0-0-8-8-8-8-8---8-8-8-|-3-3-3-3---3-3-7-7-7-7-7---7-2-2--|
||----------------------------------|----------------------------------|


  S S S S S S S S S S S S S S S S   S S S S S S S S S S S S S S S S
|---------------------------------|---------------------------------|
|---------------------------------|---------------------------------|
|---------5---------------5-------|---------5---------------5---6-6-|
|-0-0-0-0---0-0-8-8-8-8-8---8-8-8-|-3-3-3-3---3-3-7-7-7-7-7---7-----|
|---------------------------------|---------------------------------|


  S S S S S S S S S S S S S S S S   S S S S S S S S S S S S S S S S
|---------------------------------|---------------------------------|
|---------------------------------|---------------------------------|
|---------5---------------5-------|---------5---------------5-------|
|-0-0-0-0---0-0-8-8-8-8-8---8-8-8-|-3-3-3-3---3-3-7-7-7-7-7---7-2-2-|
|---------------------------------|---------------------------------|


  S S S S S S S S S S S S S S S S   S S S S S S S S S S S S S S S S
|---------------------------------|---------------------------------||
|---------------------------------|---------------------------------||
|---------5---------------5-------|---------5---------------5---6-6-||
|-0-0-0-0---0-0-8-8-8-8-8---8-8-8-|-3-3-3-3---3-3-7-7-7-7-7---7-----||
|---------------------------------|---------------------------------||


  S S S S S S S S S S S S Q    S S S S S S S S S S S S S S S S
|----------------------------|---------------------------------|
|----------------------------|---------------------------------|
|----------------------------|---------------------------------|
|-0-0-0-----0-0-0-0-0-0------|-0-0-0-----0-0-0-2-0-0-2-0-0-2h3-|
|----------------------------|---------------------------------|


                                                           2/4
  S S S S S S S S S S S S Q    S S S S S S S S E. S +E  E   +S  S +E  Q
|----------------------------|--------------------------8-|-(8)------------||
|----------------------------|--------------------7-(7)---|-----7-(7)------||
|----------------------------|-----------------6----------|-----------6\---||
|-0-0-0-----0-0-0-0-0-0------|-0-0-0-----0-0-0------------|----------------||
|----------------------------|----------------------------|----------------||


 Chorus
  $
 4/4
  E. S S S E S S +S  S E S S   S S E S S S S E +S  S S S E
|----------------------------|-----------------------------|
|----------------------------|-----------------------------|
|----------------------------|-----------------------------|
|-0--0-0-0-0---3-(3)---3-3-3-|-3-3-3---3-3-3-3-(3)-3-3-3-3-|
|----------------------------|-----------------------------|


  S S S S E S S S S +E  E S S
|-----------------------------|
|-----------------------------|
|-3-----3---3-----------------|
|-----------------5-(5)-8-8-8-|
|-----------------------------|


  S S E +S  S S S E +S  S S S E
|-------------------------------|
|-------------------------------|
|-------------------------------|
|-8-8-8-(8)-8-8-8-8-(8)-8-8-8---|
|-----------------------------6-|


  E. S S S E S S +S  S E S S   S S E S S S S E +S  S S S E
|----------------------------|------------------------------|
|----------------------------|------------------------------|
|----------------------------|------------------------------|
|-0--0-0-0-0---3-(3)---3-3-3-|-3-3-3---3-3-3-3-(3)-3-3-3-3--|
|----------------------------|------------------------------|


                                                     To Coda
  S S S S E S S S S +E  E S S   S S E +S  S S S E +S  S S S E
|-----------------------------|-------------------------------|
|-----------------------------|-------------------------------|
|-3-----3---3-----------------|-------------------------------|
|-----------------5-(5)-8-8-8-|-8-8-8-(8)-8-8-8-8-(8)-8-8-8-7-|
|-----------------------------|-------------------------------|


 1.
  S S S S S S S S S S S S Q
|------------------------------|
|------------------------------|
|------------------------------|
|-0-0-0---0-0-0---0-0-0--------|
|------------------------------|


  S S S S S S S S S S S S S S S S   S S S S S S S S S S S S S S S S
|---------------------------------|---------------------------------|
|---------------------------------|---------------------------------|
|---------5---------------5-------|---------5---------------5-------|
|-0-0-0-0---0-0-8-8-8-8-8---8-8-8-|-3-3-3-3---3-3-7-7-7-7-7---7-2-2-|
|---------------------------------|---------------------------------|

[ Tab from: http://www.guitartabs.cc/tabs/d/disturbed/dehumanized_btab.html ]
  S S S S S S S S S S S S S S S S   S S S S S S S S S S S S S S S S
|---------------------------------|----------------------------------||
|---------------------------------|---------------------------------o||
|---------5---------------5-------|---------5---------------5---6-6--||
|-0-0-0-0---0-0-8-8-8-8-8---8-8-8-|-3-3-3-3---3-3-7-7-7-7-7---7-----o||
|---------------------------------|----------------------------------||


  2.
                                                            |-3-|
  S S S S S S S S S S S S S S S S   S S S S S S S S S S S S e e e
|---------------------------------|--------------------------------||
|---------------------------------|--------------------------------||
|---------------------------------|--------------------------------||
|-0-0-0---0-0-0---0-0-0---0-0-0---|-0-0---0-0---0-0---0-0---0-0-0--||
|---------------------------------|--------------------------------||


   Bridge
    E. S +E  E +E  E E E   E E E E E E E E
||-----------------------|-----------------|
||o----------------------|-----------------|
||-----------------------|-----------------|
||o-3--5-(5)-1-(1)-1-1-1-|-1-1-1-1-1-1-1-1-|
||-----------------------|-----------------|


                           D.S. al Coda
  E. S +E  E +E  E E E   E E E E E E E E
|----------------------|-------------------||
|----------------------|------------------o||
|----------------------|-------------------||
|-3--5-(5)-1-(1)-3-3-3-|-3-3-3-3-3-3-3-3--o||
|----------------------|-------------------||


  &
  E. S +E  E Q  E S S   S S E S S S S E +S  S S S E
|---------------------|-----------------------------|
|---------------------|-----------------------------|
|---------------------|-----------------------------|
|-0--0-(0)-0----3-3-3-|-3-3-3---3-3-3-3-(3)-3-3-3-3-|
|---------------------|-----------------------------|


  S S S S E S S S S +E  E S S
|-------------------------------|
|-------------------------------|
|-3-----3---3-------------------|
|-----------------5-(5)-8-8-8---|
|-------------------------------|


  S S E +S  S S S E +S  S S S E
|-------------------------------|
|-------------------------------|
|-------------------------------|
|-8-8-8-(8)-8-8-8-8-(8)-8-8-8---|
|-----------------------------6-|


  E. S S S E S S +S  S E S S   S S E S S S S E +S  S S S E
|----------------------------|------------------------------|
|----------------------------|------------------------------|
|----------------------------|------------------------------|
|-0--0-0-0-0---3-(3)---3-3-3-|-3-3-3---3-3-3-3-(3)-3-3-3-3--|
|----------------------------|------------------------------|


  S S S S E S S S S +E  E S S   S S E +S  S S S E +S  S S S E
|-----------------------------|-------------------------------||
|-----------------------------|-------------------------------||
|-3-----3---3-----------------|-------------------------------||
|-----------------5-(5)-8-8-8-|-8-8-8-(8)-8-8-8-8-(8)-8-8-8-7-||
|-----------------------------|-------------------------------||


 Outro
  S S S S S S S S S S S S Q    S S S S S S S S S S S S S S S S
|----------------------------|---------------------------------|
|----------------------------|---------------------------------|
|----------------------------|---------------------------------|
|-0-0-0-----0-0-0-0-0-0------|-0-0-0-----0-0-0-2-0-0-2-0-0-2h3-|
|----------------------------|---------------------------------|


  S S S S S S S S S S S S Q
|----------------------------|
|----------------------------|
|----------------------------|
|-0-0-0-----0-0-0-0-0-0------|
|----------------------------|


                                >
  S S S S S S S S E. S +E  E   +W           +W
|--------------------------8-|-(8)--------|-(8)----*|
|--------------------7-(7)---|------------|--------*|
|-----------------6----------|------------|--------*|
|-0-0-0-----0-0-0------------|------------|--------*|
|----------------------------|------------|--------*|


Duration Legend
---------------
W - whole; H - half; Q - quarter; E - 8th; S - 16th; T - 32nd; X - 64th; a - acciaccatura
+ - note tied to previous; . - note dotted; .. - note double dotted
Uncapitalized letters represent notes that are staccato (1/2 duration)
Irregular groupings are notated above the duration line
Duration letters will always appear directly above the note/fret number it represents the
duration for.  Duration letters with no fret number below them represent rests.  Multi-
bar rests are notated in the form Wxn, where n is the number of bars to rest for.  Low
melody durations appear below the staff

Tablature Legend
----------------
 h   - hammer-on
 p   - pull-off
 b   - bend
 pb  - pre-bend
 r   - bend release (if no number after the r, then release immediately)
 /\  - slide into or out of (from/to "nowhere")
 s   - legato slide
 S   - shift slide
  - natural harmonic
[n]  - artificial harmonic
n(n) - tapped harmonic
 ~   - vibrato
 tr  - trill
 T   - tap
 TP  - trem. picking
 PM  - palm muting
\n/  - tremolo bar dip; n = amount to dip
 \n  - tremolo bar down
 n/  - tremolo bar up
/n\  - tremolo bar inverted dip
 =   - hold bend; also acts as connecting device for hammers/pulls
 <>  - volume swell (louder/softer)
 x   - on rhythm slash represents muted slash
 o   - on rhythm slash represents single note slash

Misc Legend
-----------
 |  - bar
||  - double bar
||o - repeat start
o|| - repeat end
*|  - double bar (ending)
 :  - bar (freetime)
 $  - Segno
 &  - Coda
Tempo markers -  = BPM(8/16=s8/s16), where s8 = swing 8ths, s16 = swing 16ths
Comments