Disturbed - Decay Chords & Tabs

 

Decay Chords & Tabs

Disturbed Chords & Tabs

Version: 1 Type: Tab 0 ratings
1 star 2 stars 3 stars 4 stars 5 stars
comments

Decay Tab

   
Band- Disturbed
Song- Decay
Tuning- Drop D

You can hear this track in THE SICKNESS Album 
between the Stupify and Down With The Sikness Song. 
I Hope this is the Real Name for this cool secret
track. . . 

BWA!! This sounds very Evil. . . GWAA!!

ENJOY!
[ Tab from: http://www.guitartabs.cc/tabs/d/disturbed/decay_tab.html ]
(Dan Donegan also uses a kind of effect or something 
like that)

E|-----------||
B|-----------||
G|-4----3----||
D|-1----1----||
A|-----------||
D|-----------||

E|-----------------||
B|-----------------||
G|-2----3----4----3||
D|-1----1----1----1||
A|-----------------||
D|-----------------||

E|---||
B|---||
G|---||
D|-1-||
A|-0-||
D|---||

ENJOY!!!
Comments