Disturbed - Darkness Chords & Tabs

 

Darkness Chords & Tabs

Disturbed Chords & Tabs

Version: 5 Type: Tab 0 ratings
1 star 2 stars 3 stars 4 stars 5 stars
comments

Darkness Tab

   
darkness
key:Eb
[ Tab from: http://www.guitartabs.cc/tabs/d/disturbed/darkness_tab_ver_5.html ]
intro
--------------------------------------|
--------------------------------------|
-------------------------------0------|
------4---4-0---0--------4---4-----0--|
----2---2-----2--------2---2-----2----|
--0------------------3----------------|
chorus   3x                             then          strum D chord
-----------0--------------0------|     |----------0----------2-2--|
-------------3--------------3----|     |------------3--------3-3--|
------0--------0--------------0--|     |------0-------0------2-2--|
----2----------------------------|     |----2-------------0--0-0--|
--3----------------3-------------|     |--3-----------------------|
---------------------3-0---------|     |--------------------------|
repeat intro
chorus
break    repeat   4x                   4th time strum this chord
-----------------------------------------------------|  -----
----------------0-0-0-----0-0-0-----0-0-0-----0-0-0--|  --0--
--4--4-4-4--4---4-4-4-4---4-4-4-4---4-4-4-4---4-4-4--|  --4--
--2--2-2-2--3---0-0-0-3---0-0-0-3---0-0-0-3---0-0-0--|  --0--
--2--2-2-2--2---2-2-2-2---2-2-2-2---2-2-2-2---2-2-2--|  --2--
-----------------------------------------------------|  -----
repeat intro
chorus
intro
                                     enjoy
Comments