Disturbed - Darkness Chords & Tabs

 

Darkness Chords & Tabs

Disturbed Chords & Tabs

Version: 4 Type: Tab 0 ratings
1 star 2 stars 3 stars 4 stars 5 stars
comments

Darkness Tab

this song is off of their new cd. im not sure if this is correct but its close.
theres more to the chorus and theres some part where he strums some stuff but ill figure
that out later. if you have any corrections or the other parts email me at xxjgokou27xx@hotmail.com
[ Tab from: http://www.guitartabs.cc/tabs/d/disturbed/darkness_tab_ver_4.html ]
intro/verse/outro
e-------------------------------------------------
b-------------------------------------------------
g-------------------------------------------------
d--------3-----3-----------------3-----3--4-----4-
a-----4-----------4-----4-----4-------------------
e--6--------6--------6-----2--------2--------2----

e-------------------------------------------------
b-------------------------------------------------
g-------------------------------------------------
d--------3-----3-----------------3-----3--4-------
a-----4-----------4-----4-----4-----------------4-
e--6--------6--------6-----2--------2--------2----

chorus
e--0------
b--5p0----
g-------0-
d---------
a---------
e---------
Comments