Disturbed - Darkness Chords & Tabs

 

Darkness Chords & Tabs

Disturbed Chords & Tabs

Version: 2 Type: Tab 1 rating
1 star 2 stars 3 stars 4 stars 5 stars
comments

Darkness Tab


intro/outro
[ Tab from: http://www.guitartabs.cc/tabs/d/disturbed/darkness_tab_ver_2.html ]
e----------------------------------------------
B----------------------------------------------
G----------------------------------------------
D-----4---4-0----0--------4---5-0--------------
A---2---2-----2---------2---2-----2------------
E-0-------------------3------------------------


chorus


e------------0-----------------------0----------
B----------3--3------------------------3--------
G--------0-----0-------------------------0------
D------2----------------------------------------
A----3--------------------2--0------------------
E------------------------------0----------------
Comments