Disturbed - Darkness Chords & Tabs

 

Darkness Chords & Tabs

Disturbed Chords & Tabs

Version: 1 Type: Tab 3 ratings
1 star 2 stars 3 stars 4 stars 5 stars
comments

Darkness Tab

   
Artist:disturbed 
song:darkness
tabbed by:Dysfunction)
tuning: Eb Ab Db Gb Bb Eb 

      Acuos.
      intro & verse & outro
  Eb |------------------------|------------------------|
  Bb |------------------------|------------------------|
  Gb |------------------------|------------------------|
  Db |-------4-----4--0-----0-|-------4-----4--5-------|
  Ab |----2-----2--------2----|----2-----2--------2--5-|
  Eb |-0----------------------|-3----------------------|

      chorus
  Eb |---------------0--------|--------------0---------|
  Bb |------------3-----3-----|-----------------3------|
  Gb |---------0-----------0--|--------------------0---|
  Db |------2-----------------|------------------------| x3 then
  Ab |-3----------------------|-2----0-----------------| chorus.fill 
  Eb |------------------------|---------0--------------| x1
[ Tab from: http://www.guitartabs.cc/tabs/d/disturbed/darkness_tab.html ]
      chorus.fill
  Eb |---------------0--------|-0-------0----------0-0-|
  Bb |------------3-----3-----|-3-------3-------3--3-3-|
  Gb |---------0-----------0--|-0----2--2-------2--2-2-|
  Db |------2-----------------|-2----0-------0--0--0---|
  Ab |-3----------------------|-3----------------------|
  Eb |------------------------|------------------------|

      interlude
  Eb |------------------------|------------------------|
  Bb |------0-----------0-----|------0-----------0-----|
  Gb |-4----4------4----4-4-x-|-4----4------4----4-4-x-| x3 then 
  Db |-4----4-4-x--4----4-4-x-|-4----4-4-x--4----4-4-x-| int.fill
  Ab |-2----2-2-x--2----2-2-x-|-2----2-2-x--2----2-2-x-| x1
  Eb |-0------0----3----3-----|-3------3----3----3-----|


      int.fill
  Eb |-------------------------------------------------------|
  Bb |------0------0---------------------------------------0-|
  Gb |-4----4------4-------4-----4-----4-----4-----4-----4-4-|
  Db |-4----4-4-x--4-------4-----4-----4-----4-----4--4--4-4-|
  Ab |-2----2-2-x--2----2-----2-----2-----2-----2-----2--2-2-|
  Eb |-0------0----3----3-----3-----3-----3-----3-----3------|

Comments