Disturbed - Breathe Chords & Tabs

 

Breathe Chords & Tabs

Disturbed Chords & Tabs

Version: 1 Type: Tab 0 ratings
1 star 2 stars 3 stars 4 stars 5 stars
comments

Breathe Tab

Song: "Breathe"
Artist: Disturbed
Album: Believe


INTRO:
|---------------------------------------8-7---------------------------|
|---------------------------------------------------------------------|
|-----------------------------9-10-9-10-----------------------7---5---|
|-9h10-9-XX-9h10-7-XX-9h10-9----------------9h10-9-XX-9h10-7--7-3-5-5-|
|-7----7-XX-7----7-XX-7----7----------------7----7-XX-7----7--5-3-3-5-|
|-7----7-XX-7----7-XX-7----7----------------7----7-XX-7----7----3---5-|
pm                            . .. . ..

|---------------------------------------8-7----------------------------|
|----------------------------------------------------------------------|
|-----------------------------9-10-9-10-----------------------7---5-10-|
|-9h10-9-XX-9h10-7-XX-9h10-9----------------9h10-9-XX-9h10-7--7-3-5-10-|
|-7----7-XX-7----7-XX-7----7----------------7----7-XX-7----7--5-3-3--8-|
|-7----7-XX-7----7-XX-7----7----------------7----7-XX-7----7----3------|
pm                            . .. . ..

VERSE:
|-------------------------------------------------------------|
|-------------------------------------------------------------|
|-----------------------------------------------------7---5---|
|-9h10-9-XX-9h10-7-XX-9h10-9-----9--9h10-9-XX-9h10-7--7-3-5-5-|
|-7----7-XX-7----7-XX-7----7---7----7----7-XX-7----7--5-3-3-5-|
|-7----7-XX-7----7-XX-7----7--------7----7-XX-7----7----3---5-|

|---------------------------------------8-7----------------------------|
|----------------------------------------------------------------------|
|-----------------------------9-10-9-10-----------------------7---5-10-|
|-9h10-9-XX-9h10-7-XX-9h10-9----------------9h10-9-XX-9h10-7--7-3-5-10-|
|-7----7-XX-7----7-XX-7----7----------------7----7-XX-7----7--5-3-3--8-|
|-7----7-XX-7----7-XX-7----7----------------7----7-XX-7----7----3------|
pm                            . .. . ..

BRIDGE:
|-------------------------------------------------------------|
|-------------------------------------------------------------|
|-9-9-9-9-9-9-9-9---------------------------------------------|
|-9-9-9-9-9-9-9-9-------------------------------5555-5555-555-|
|-7-7-7-7-7-7-7-7-3333-3333-333--0000-0000-000--3333-3333-333-|
|-----------------3333-3333-333--0000-0000-000----------------|

|--------------------------------------------------------------|
|--------------------------------------------------------------|
|-5555-5555-5----------------------------------7-7-7-7-7-7-7-7-|
|-3333-3333-3----------------------------------X-X-X-X-X-X-X-X-|
|-------------3--3333-3333-333--2222-2222-222--5-5-5-5-5-5-5-5-|
|-------------3--3333-3333-333--2222-2222-222--0-0-0-0-0-0-0-0-|

|---------------------|
|---------------------|
|-9/10-9/10-9/10-9/10-|
|-X-X--X-X--X-X--X-X--|
|-7/8--7/8--7/8--7/8--|
|---------------------|
[ Tab from: http://www.guitartabs.cc/tabs/d/disturbed/breathe_tab.html ]
CHORUS:
|-------------------/10----8----7----------------------------------|
|------------------------------------------------------------------|
|---------------------------------10101010101010101010101010101010-|
|-7-7-XX-5-5-XX-0-0-----10----9----X-X-X-X-X-X-X-X-X-X-X-X-X-X-X-X-|
|-7-7-XX-5-5-XX-0-0----------------8-8-8-8-8-8-8-8-8-8-8-8-8-8-8-8-|
|-7-7-XX-5-5-XX-0-0------------------------------------------------|

|---------------------------------------------8-7-|
|-------------------------------------------------|
|-9999999999999999-------------------7------------|
|-XXXXXXXXXXXXXXXX-7-7-XX-5-5-XX-0-0---10--10-----|
|-7777777777777777-7-7-XX-5-5-XX-0-0--------------|
|------------------7-7-XX-5-5-XX-0-0--------------|

|------------------------------------------------|
|------------------------------------------------|
|-10101010101010101010101010101010-9999999999999-|
|--X-X-X-X-X-X-X-X-X-X-X-X-X-X-X-X-XXXXXXXXXXXXX-|
|--8-8-8-8-8-8-8-8-8-8-8-8-8-8-8-8-7777777777777-|
|------------------------------------------------|

INTERLUDE:
|--------------------------------------------------------|
|--------------------------------------------------------|
|--------------------------------------------------------|
|-5-7-0-7-10-0-5-7-0-0-0-0-12-12-0-10-10-0-9-9-0-10-0-10-|
|-5-7-0-7-10-0-5-7-0-0-0-0-12-12-0-10-10-0-9-9-0-10-0-10-|
|--------------------------------------------------------|
pm    .      .     . . . .       .       .     .    .

|--------------------------------------------------|
|--------------------------------------------------|
|--------------------------------------------------|
|-5-7-0-7-10-0-5-7-0-0-0-0-5-7-0-5-7-0-5-7---------|
|-5-7-0-7-10-0-5-7-0-0-0-0-5-7-0-5-7-0-5-7-5-5-5-5-|
|------------------------------------------5-5-5-5-|
pm    .      .     . . . .     .     .     . . . .

|--------------------------------------------------------|
|--------------------------------------------------------|
|--------------------------------------------------------|
|-5-7-0-7-10-0-5-7-0-0-0-0-12-12-0-10-10-0-9-9-0-10-0-10-|
|-5-7-0-7-10-0-5-7-0-0-0-0-12-12-0-10-10-0-9-9-0-10-0-10-|
|--------------------------------------------------------|
pm    .      .     . . . .       .       .     .    .

|--------------------------------------------------|
|--------------------------------------------------|
|--------------------------------------------------|
|-5-7-0-7-10-0-5-7-0-0-0-0-10-10-XX-12-12-XX-10-10-|
|-5-7-0-7-10-0-5-7-0-0-0-0-10-10-XX-12-12-XX-10-10-|
|--------------------------10-10-XX-12-12-XX-10-10-|
pm    .      .     . . . .

OUTRO:
|---------------------------------------------------|
|---------------------------------------------------|
|-10101010101010101010101010101010-9999999999999999-|
|--X-X-X-X-X-X-X-X-X-X-X-X-X-X-X-X-XXXXXXXXXXXXXXXX-|
|--8-8-8-8-8-8-8-8-8-8-8-8-8-8-8-8-7777777777777777-|
|---------------------------------------------------|

OUTRO 2:
|---|
|---|
|---|
|-7-|
|-7-|
|-7-|
Comments