Disturbed - Bound Chords & Tabs

 

Bound Chords & Tabs

Disturbed Chords & Tabs

Version: 2 Type: Tab 0 ratings
1 star 2 stars 3 stars 4 stars 5 stars
comments

Bound Tab

Disturbed
Bound.
Tabbed by Mathias Stefansson (mast@egonet.se)
Not sure about the tuning, but i put mine in c# and it sounds good.
If you find any misstakes, shuv 'em somewhere they won't bother anyone.
Just kidding.
Have fun with this one, I sure did.

Intro riff 1:

|-------------------------------------------------------------------------------------------|
|-------------------------------------------------------------------------------------------|
|-------------------------------------------------------------------------------------------|
|-------------------------------------------------------------------------------------------|
|-------------------------------------------------------------------------------------------|
|-3-3-3-0-0-0-2-2-2-5-5-5-5-5-5-5-3-3-3-0-0-0-2-2-2-5-5-5-2-2-5-5-3-3-3-0-0-0-2-2-2-5-5-5-5-|

|---------------------------------|
|---------------------------------|
|---------------------------------|
|---------------------------------|
|---------------------------------|
|-5-5-5-3-3-3-0-0-0-2-2-2-5-5-5-5-|


Intro riff 2:

Repeat each chord 3-4 times. Listen to the song.

|------------------------------------------|
|------------------------------------------|
|----------2-----------2-----2-----------2-|
|-5--2--4--2--5--2--4--2--4--2--5--2--4--2-|
|-5--2--4--0--5--2--4--0--2--0--5--2--4--0-|
|-3--0--2-----3--0--2-----2-----3--0--2----|


Verse/prechorus:		  First time:	   Second time

X2
|--------------------------------:----------------:--------------|
|--------------------------------:----------------:--------------|
|--------------------------------:----------------:---------2----|
|--------------------------------:----------------:-2--2--2-2--5-|
|----4-----5--------------4------:----------5-5---:-2--2--2-0--5-|
|-2-----3-----0-5-5-3--2-----0-2-:-0-5-5-3------3-:-0--0--0----3-|


Chorus:
[ Tab from: http://www.guitartabs.cc/tabs/d/disturbed/bound_tab_ver_2.html ]
|-------------------------------------------------------------------------------|
|-------------------------------------------------------------------------------|
|---11-11-9-9----------------11-11-9-9----------------11-11-9-9--------------2-|
|---11-11-9-9----------------11-11-9-9----------------11-11-9-9--------------2-|
|---9--9--7-7----------------9--9--7-7----------------9--9--7-7--------------0-|
|-2-----------0-0-0--0-0-0-2------------0--0--0-0-0-2-----------0-0-0--0-0-0---|

										End on:	then:
|------------------------------------------------------------------------------:-------:------|
|------------------------------------------------------------------------------:-------:------|
|---11-11-9-9----------------11-11-9-9----------------11-11-9-9--------------2-:--7----:------|
|---11-11-9-9----------------11-11-9-9----------------11-11-9-9--------------2-:--7----:------|
|---9--9--7-7----------------9--9--7-7----------------9--9--7-7--------------0-:--5----:--/9--|
|-2-----------0-0-0--0-0-0-2------------0--0--0-0-0-2-----------0-0-0--0-0-0---:-------:------|

I will not type up all the variations, simply because it takes to f*cking long.
This is the basic progression.



Riff nr 5:

X8
|---------------------------------|
|---------------------------------|
|---------------------------------|
|-------------------------2-------|
|-4-----------4-------------------|
|---3-2-0-2-3---3-2-0-2-3---3-2-3-|


riff 6:

|---------------------------------------------------------|
|---------------------------------------------------------|
|----6-----7---------6-----7---------6-----7---------6----|
|-4--6--5--7--5-5-4--6--5--7--5-5-4--6--5--7--5-5-4--6--5-|
|-4--4--5--5--5-5-4--4--5--5--5-5-4--4--5--5--5-5-4--4--5-|
|-2-----3-----3-3-2-----3-----3-3-2-----3-----3-3-2-----3-|



Verse 1:

Oh, I'm not ready to die, girl.
Because of what you don't tell me,
I'm not ready to walk inside of where you're taking me.
Oh, I'm not ready to die girl.
Because of what you don't tell me,
I'm not willing to comprimise the man I wan't to be.

Chorus:
Think you're a little bit closer to changing me.
Youre never winning me over, you're wasting time.
Think you're a little bit closer to changing me.
Youre never winning me over, you're wasting time, yeah.
Leave me be.

Verse 2:
Oh, I'm not ready to die, girl.
Because of what you don't tell me,
I'm not ready to tow the line of your conformity.
Oh, I'm not ready to die, girl.
Because of what you don't tell me,
I'm not ready to leave the realm of anonymity.
Comments