Disturbed - Bound Chords & Tabs

 

Bound Chords & Tabs

Disturbed Chords & Tabs

Version: 2 Type: Bass Tab 0 ratings
1 star 2 stars 3 stars 4 stars 5 stars
comments

Bound Bass Tab

   
Tuning-Bb,Db,Ab,Db,Gb

Intro  (0:09)
Gb-------------------------------------------------------------------|
Db-------------------------------------------------------------------|  x2
Ab-------------------------------------------------------------------|
Db-3-3-3-------2-2-2-5-5-5-5-5-5-5--3-3-3-------2-2-2-5-5-5-2-2-5-5--|
Bb-------3-3-3----------------------------3-3-3----------------------|

Interlude
Gb------------------------------------------------|
Db------------------------------------------------|
Ab----2-----3--------------2---------------3-3----|
Db-2-----3-------5-5-3--2-----0-3-0-5-5-3------3--|
Bb-------------1----------------------------------|

Gb-----------------------------------------------|
Db-----------------------------------------------|
Ab----2-----3--------------2---------------------|
Db-2-----3-------5-5-3--2-----0-3-0--0--0-5-5-3--|
Bb-------------1---------------------------------|

Gb------------------------------------------------|
Db------------------------------------------------|
Ab----2-----3--------------2---------------3-3----|
Db-2-----3-------5-5-3--2-----0-3-0-5-5-3------3--|
Bb-------------1----------------------------------|

Gb-----------------------------------------------|
Db-----------------------------------------------|
Ab----2-----3--------------2---------------------|
Db-2-----3-------5-5-3--2-----0-3-0--0--0-5-5-3--|
Bb-------------1---------------------------------|

Verse
Gb-----------------------------------------------------------------------|
Db-----------------------------------------------------------------------|  x2
Ab7--2-----3---7--2--------------3-3---7--2---3-----2--------------------|
Db------3------------0-3-0-5-5-3-----3------3----2-----0-3-0--0--0-5-3---|
Bb-----------------------------------------------------------------------|

Chorus  (0:50)
Gb----------------------------------------------------------------------|
Db----------------------------------------------------------------------|
Ab---7-7-5------------------7-7-5------------------7-7-5----------------|
Db-2--------0-0-0--0-0-0--2--------0-0-0--0-0-0--2--------0-0-0--0-0-0--|
Bb----------------------------------------------------------------------|

Gb---------------------------------------------------------------|
Db---------------------------------------------------------------|
Ab-------------------7-7-5------------------7-7-5----------------|
Db-5--5--5--5-5----2--------0-0-0--0-0-0--2--------0-0-0--0-0-0--|
Bb--------------0------------------------------------------------|

Gb------------------------------------------------------------------------|
Db------------------------------------------------------------------------|
Ab--7-7-5--------------------------------3--3--3--3--3-3------------------|
Db2--------0-0-0--0-0-0--5--5--5--5-5-5-----------------------------------|
Bb-------------------------------------------------------1--1--1--1--1--1-|

Interlude  (1:25)
Gb-------------------------------------------------------------------|
Db-------------------------------------------------------------------|
Ab-------------------------------------------------------------------|
Db-3-3-3-------2-2-2-5-5-5-2-2-5-5--3-3-3-------2-2-2-7-7-7-7-7-7-7--|
Bb-------3-3-3----------------------------3-3-3----------------------|

Gb----------------------------------|
Db----------------------------------|
Ab----------------------------------|
Db-3-3-3-------2-2-2-5-5-5-2-2-5-5--|
Bb-------3-3-3----------------------|

Verse
Gb-----------------------------------------------------------------------|
Db-----------------------------------------------------------------------|  x2
Ab7--2-----3---7--2--------------3-3---7--2---3-----2--------------------|
Db------3------------0-3-0-5-5-3-----3------3----2-----0-3-0--0--0-5-3---|
Bb-----------------------------------------------------------------------|
[ Tab from: http://www.guitartabs.cc/tabs/d/disturbed/bound_btab_ver_2.html ]
Chorus  (1:54)
Gb---------------------------------------------------------------------|
Db---------------------------------------------------------------------|
Ab---7-7-5------------------7-7-5------------------7-7-5---------------|
Db-2--------0-0-0--0-0-0--2--------0-0-0--0-0-0--2--------0-0-0--0-0-0-|
Bb---------------------------------------------------------------------|

Gb---------------------------------------------------------------|
Db---------------------------------------------------------------|
Ab-------------------7-7-5------------------7-7-5----------------|
Db-5--5--5--5-5----2--------0-0-0--0-0-0--2--------0-0-0--0-0-0--|
Bb--------------0------------------------------------------------|

Gb------------------------------------------------------------------------|
Db------------------------------------------------------------------------|
Ab--7-7-5--------------------------------3--3--3--3--3-3------------------|
Db2--------0-0-0--0-0-0--5--5--5--5-5-5-----------------------------------|
Bb-------------------------------------------------------1--1--1--1--1--1-|

Gb----------------------------------|
Db----------------------------------|
Ab-3--3--3--3--3-3------------------|
Db----------------------------------|
Bb-----------------1--1--1--1--1-1--|

Gb----------------------------|
Db----------------------------|  x8
Ab-2--------2-----------------|
Db---5-4-2----5-4-2--6-3-0-5--|
Bb----------------------------|

Gb-------------------------------------------------------|
Db-------------------------------------------------------|
Ab-2--------2-----------------2--------2-----------------|
Db---5-4-2----5-4-2--6-3-0-5----5-4-2----5-4-2--6-3-0-5--|
Bb-------------------------------------------------------|

Gb--------------------------------------------------|
Db--------------------------------------------------|
Ab-2--------2-----------------2--------2-----2------|
Db---5-4-2----5-4-2--6-3-0-5----5-4-2----5-4---3-3--|
Bb--------------------------------------------------|

Chorus  (2:58)
Gb----------------------------------------------------------------------|
Db----------------------------------------------------------------------|
Ab---7-7-5------------------7-7-5------------------7-7-5----------------|
Db-2--------0-0-0--0-0-0--2--------0-0-0--0-0-0--2--------0-0-0--0-0-0--|
Bb----------------------------------------------------------------------|

Gb---------------------------------------------------------------|
Db---------------------------------------------------------------|
Ab-------------------7-7-5------------------7-7-5----------------|
Db-5--5--5--5-5----2--------0-0-0--0-0-0--2--------0-0-0--0-0-0--|
Bb--------------0------------------------------------------------|

Gb------------------------------------------|
Db------------------------------------------|
Ab---7-7-5----------------------------------|
Db-2--------0-0-0--0-0-0--5--5--5---5-5-----|
Bb---------------------------------------0--|

Outro  (3:17)
Gb---------------------------------------------------------------------|
Db---------------------------------------------------------------------|
Ab---7-7-5------------------7-7-5-----------------7-7-5----------------|
Db-2--------0-0-0--0-0-0--2-------0-0-0--0-0-0--2--------0-0-0--0-0-0--|
Bb---------------------------------------------------------------------|

Gb-----------------|
Db-----------------|
Ab-----------------|
Db-5--5--5--5-5----|
Bb--------------0--|

Gb---------------------------------------------------------------------|
Db---------------------------------------------------------------------|
Ab---7-7-5------------------7-7-5-----------------7-7-5----------------|
Db-2--------0-0-0--0-0-0--2-------0-0-0--0-0-0--2--------0-0-0--0-0-0--|
Bb---------------------------------------------------------------------|

Gb----------------------|
Db----------------------|
Ab----------------------|
Db-5--5--5--5-5----2~~--|
Bb--------------0-------|

Thanks, please rate it after you learn it.
Comments