Disturbed - Believe Chords & Tabs

 

Believe Chords & Tabs

Disturbed Chords & Tabs

Version: 4 Type: Tab 0 ratings
1 star 2 stars 3 stars 4 stars 5 stars
comments

Believe Tab

   
-------------------------------------------------------------------------------
			     Believe - Disturbed
-------------------------------------------------------------------------------

Tabbed by: Mirza
Email: Mirza513@hotmail.com

Tuning:
Db Ab Db Gb Bb Eb

| /  slide up
| \  slide down
| h  hammer-on
| p  pull-off
| ~  vibrato
| x  Palm Mute

[RIFF 1]
eb|--------------------------------------------------------------------------|
Bb|--------------------------------------------------------------------------|
Gb|--------------------------------------------------------------------------|
Db|-5-5--8-8--10-10--8-8-7-----5-5--8-8--10-10-------------------------------|x2
Ab|-5-5--5-5--8--8---5-5-5-----5-5--5-5--8--8---0-0-0-0----------------------|
Db|-5-5--5-5--8--8---0-0-0-----5-5--5-5--8--8---0-0-0-0----------------------|
                                                X X X X

[RIFF 2]  
eb|--------------------------------------------------------------------------|
Bb|--------------------------------------------------------------------------|
Gb|--------------------------------------------------------------------------|x2
Db|----------------8-8-7-----------------------------------------------------|
Ab|-5-5--5-5--8-8--5-5-5-------5-5--5-5--8-8--0-0-0--------------------------|
Db|-5-5--5-5--8-8--0-0-0-------5-5--5-5--8-8--0-0-0--------------------------|
    X X  X X  X X  X X X       X X  X X  X X  X X X
eb|--------------------------------------------------------------------------|
Bb|--------------------------------------------------------------------------|
Gb|--------------------------------------------------------------------------|x2
Db|-5-5------------8-8-7----5-5----------------------------------------------|
Ab|-5-5--5-5--8-8--5-5-5----5-5--5-5---8-8--0-0-0----------------------------|
Db|-5-5--5-5--8-8--0-0-0----5-5--5-5---8-8--0-0-0----------------------------|
         X X  X X                X X   X X  X X X

[RIFF 3]
eb|--------------------------------------------------------------------------|
Bb|--------------------------------------------------------------------------|
Gb|--------------------------------------------------------------------------|
Db|-3--3----5-8-5-8-1-1--5-8-5-8-1-1-----------------------------------------|
Ab|-3--3----5-8-5-8-1-1--5-8-5-8-1-1-----------------------------------------|
Db|-1--3----5-8-5-8-1-1--5-8-5-8-1-1-----------------------------------------|
[ Tab from: http://www.guitartabs.cc/tabs/d/disturbed/believe_tab_ver_4.html ]
eb|--------------------------------------------------------------------------|
Bb|--------------------------------------------------------------------------|
Gb|--------------------------------------------------------------------------|
Db|-3--3---|-5-5--5-5--1-1--3-3-1-|   --5-5-5-5-5-5--------------------------|
Ab|-3--3---|-5-5--5-5--1-1--3-3-1-|X4 --5-5-5-5-5-5--------------------------|
Db|-1--3---|-5-5--3-3--1-1--3-3-1-|   --5-5-5-5-5-5--------------------------|
                                        X X x x 

                ** Repeat RIFF 1 , 2 , 3 and then this... **
[RIFF 4]
eb|--------------------------------------------------------------------------|
Bb|--------------------------------------------------------------------------|
Gb|--------------------------------------------------------------------------|
Db|-0-----------------------------------------------------------3-3----------|x2
Ab|-0-----0-0-8p7--0-0-7p5--0-0-5p3--0-8---0-0-8p7-0-0-7p5-0-0--1-1----------|
Db|-0-----0-0------0-0------0-0------0-----0-0-----0-0-----0-0---------------|

eb|--------------------------------------------------------------------------|
Bb|--------------------------------------------------------------------------|
Gb|--------------------------------------------------------------------------|
Db|--------------------------------------------------------------3-3---------|x4
Ab|-------8p7--------7p5---------5p3---8--------8p7------7p5-----1-1---------|
Db|-0-0-0------0-0-0-------0-0-0-----0----0-0-0----0-0-0-----0-0-------------|
    X X X      X X X       X X X     X    X X X    X X X     X X              

[RIFF 5]
eb|--------------------------------------------------------------------------|
Bb|--------------------------------------------------------------------------|
Gb|--------------------------------------------------------------------------|
Db|-5-5--8-8--8-10--8-8-7----------------------------------------------------|x4
Ab|-5-5--5-5--8-10--5-5-5----------------------------------------------------|
Db|-5-5--5-5--8-10--5-5-5----------------------------------------------------|


[RIFF 6]
eb|--------------------------------------------------------------------------|
Bb|--------------------------------------------------------------------------|
Gb|--------------------------------------------------------------------------|
Db|-3--3----5-8-5-8-1-1--5-8-5-8-1-1-----------------------------------------|
Ab|-3--3----5-8-5-8-1-1--5-8-5-8-1-1-----------------------------------------|
Db|-1--3----5-8-5-8-1-1--5-8-5-8-1-1-----------------------------------------|

eb|--------------------------------------------------------------------------|
Bb|--------------------------------------------------------------------------|
Gb|--------------------------------------------------------------------------|
Db|-3--3---|-5-5--5-5--1-1--3-3--|   --5-5-5--10-10-10--1-1-1--3-3-3-|    -5-|
Ab|-3--3---|-5-5--5-5--1-1--3-3--|X5 --5-5-5--10-10-10--1-1-1--3-3-3-|X3  -5-|
Db|-1--3---|-5-5--3-3--1-1--3-3--|   --5-5-5--10-10-10--1-1-1--3-3-3-|    -5-|
                            X X          X X     XX XX    X X    X X



===============================================================================
Comments