Disturbed - Believe Chords & Tabs

 

Believe Chords & Tabs

Disturbed Chords & Tabs

Version: 3 Type: Bass Tab 0 ratings
1 star 2 stars 3 stars 4 stars 5 stars
comments

Believe Bass Tab

----------------------------------------------------------------------------
			     Believe - Disturbed
----------------------------------------------------------------------------

Tabbed By : _godsmack_
e-mail: pearson1991@hotmail.com

Tuning: Standard

  Intro [x2]                 (1        (2
G|-----------------------|-----6--||--------|
D|-----------------------|---6---.||--------|
A|--------44--44--00--00-|-4-----.||-444444-|
E|-22-22-----------------|--------||--------|

 Verse [x4]                (1        (2                
G|---------------------|-----6--||---------|
D|---------------------|---6---.||---------|
A|---------------00-00-|-4-----.||-444444--|
E|--22-22--22-22-------|--------||---------|

 Pre-Chorus                   (1                         (2
G|--------------|-------------|--------------------------||----------------|
D|--------------|-------------|-------------------------.||----------------|
A|-0-0--0-0---0-|-------------|---0---0--55---0---0--55-.||-----222-555----|
E|----------0---|-0-0-0-3-0-3-|-2---2-------2---2--------||-222---------000|

 Chorus          (1      (2      (3
G||--------------|------||------||-----|-----------------|
D||.-------------|-----.||-----.||-----|-----------------|
A||.-----222-555-|-----.||-000-.||-----|-----------------|
E||--222---------|-000--||------||-000-|-333-333-333-333-|

  Pre Verse [x2]         (1        (2
G|-----------------------|-----6--||--------|
D|-----------------------|---6---.||--------|
A|--------44--44--00--00-|-4-----.||-444444-|
E|-22-22-----------------|--------||--------|

 Verse [x4]                (1        (2                
G|---------------------|-----6--||---------|
D|---------------------|---6---.||---------|
A|---------------00-00-|-4-----.||-444444--|
E|--22-22--22-22-------|--------||---------|
[ Tab from: http://www.guitartabs.cc/tabs/d/disturbed/believe_btab_ver_3.html ]
 Pre-Chorus                   (1                         (2
G|--------------|-------------|--------------------------||----------------|
D|--------------|-------------|-------------------------.||----------------|
A|-0-0--0-0---0-|-------------|---0---0--55---0---0--55-.||-----222-555----|
E|----------0---|-0-0-0-3-0-3-|-2---2-------2---2--------||-222---------000|

 Chorus          (1      (2      (3
G||--------------|------||------||-----|-----------------|
D||.-------------|-----.||-----.||-----|-----------------|
A||.-----222-555-|-----.||-000-.||-----|-----------------|
E||--222---------|-000--||------||-000-|-333-333-333-333-|

 Bridge  (along with the kickdrum)
G|---|------------------------------------------------|
D|---|------------------------------------------------|
A|---|------------------------------------------------|
E|-3-|-0-00-00-00-00-00-00-00-00-00-00-00-00-00-00-00-|

                            [x4]  (also with kickdrum)
G|------------------------6-||---------------------------------------------|
D|----------------------6--.||---------------------------------------------|
A|-------------44-----4----.||---------------------------------------------|
E|-000-22--00------00-------||--000000000000000000000000000000000----------|

 [Play Twice]       (1        (2      
G|-----------------------|-----6--||--------|
D|-----------------------|---6---.||--------|
A|--------44--44--00--00-|-4-----.||-444444-|
E|-22-22-----------------|--------||--------|

 Pre-Chorus                   (1                         (2
G|--------------|-------------|--------------------------||----------------|
D|--------------|-------------|-------------------------.||----------------|
A|-0-0--0-0---0-|-------------|---0---0--55---0---0--55-.||-----222-555----|
E|----------0---|-0-0-0-3-0-3-|-2---2-------2---2--------||-222---------000|

Chorus          (1      (2      (3
G||--------------|------||------||-----|-----------------|
D||.-------------|-----.||-----.||-----|-----------------|
A||.-----222-555-|-----.||-000-.||-----|-----------------|
E||--222---------|-000--||------||-000-|-333-333-333-333-|

Outro                      [x4]  
G|------------------------6-||
D|----------------------6--.||
A|-------------44-----4----.||
E|-000-22--00------00-------||

For the ending just play open E with the kickdrum.

Comments