Disturbed - Awaken Chords & Tabs

 

Awaken Chords & Tabs

Disturbed Chords & Tabs

Version: 4 Type: Tab 0 ratings
1 star 2 stars 3 stars 4 stars 5 stars
comments

Awaken Tab

Band- Disturbed
Album- Believe
Song- Awaken
Tuning- Tune down 1/2 step:Drop D

Intro

|-----------------------------------------------|
|-----------------------------------------------|
|--------------------------------------------5*-|
|-3-2-3-2-3-2-3-2-6-5-5-5--3-2-3-2-3-2-3-2-5-5*-|
|-3-2-----3-2-3-2-6-5-5-5--3-2-----3-2-3-2-5----|
|-3-2-----3-2-3-2-6-5-5-5--3-2-----3-2-3-2-5----|

|------------------------------------------------|
|------------------------------------------------|
|------------------------------------------------|
|-3-2-3-2-3-2-3-2-6-5-5-5--3-2-3-2-3-2-5-5-0-0-0-|
|-3-2-----3-2-3-2-6-5-5-5--3-2-----3-2-5-5-0-0-0-|
|-3-2-----3-2-3-2-6-5-5-5--3-2-----3-2-5-5-0-0-0-|
P.M.                                       .....

Verse

|--------0--------0--------------------|
|--------------------------------------|
|-x-x-9~---x-x-9~---x-x-12~-12-x-x-----|
|-x-x-9~---x-x-8~---x-x-11~----x-x-14--|
|-x-x-7~---x-x-7~---x-x-10~----x-x-10--|
|--------------------------------------|

Pre-Chorus

|-----------------------------------|
|-----------------------------------|
|-12-12-12-12--12-12-12-12-12-12-12-|
|-11-11-11-11--11-11-11-11-11-11-11-|
|-10-10-10-10--10-10-10-10-10-10-10-|
|-----------------------------------|

Chorus

|----------------------------------------------------------------------|
|----------------------------------------------------------------------|
|---------------4-4----5----------------4-4--------------------4-4---5-|
|--------------------5-5--------------------5-0--------------------5-5-|
|-------5-5----------5----------5-5---------5-0--------5-5---------5---|
|-2-2-2-----3-3------5----2-2-2-----3-3-----5-0--2-2-2-----3-3-----5---|

|--------------------------|
|--------------------------|
|--------------------------|
|-2-0-0-0-0--0-0-0-0-0-0-0-|
|-2-0-0-0-0--0-0-0-0-0-0-0-|
|-2-0-0-0-0--0-0-0-0-0-0-0-|
P.M........  .............

Post-Chorus
[ Tab from: http://www.guitartabs.cc/tabs/d/disturbed/awaken_tab_ver_4.html ]
|-----------------------------|
|-----------------------------|
|-----------------------------|
|-3p2-0-0-0-3p2-0-0-0-3p2-0-0-|
|-3p2-0-0-0-3p2-0-0-0-3p2-0-0-|
|-3p2-0-0-0-3p2-0-0-0-3p2-0-0-|
P.M.  .....     .....     ...

|-------------------|
|-------------------|
|-------------------|
|-6/5-5---5-5-x-x-5-|
|-6/5-5---5-5-x-x-5-|
|-6/5-5---5-5-x-x-5-|

Fill

|--------0--------0---------0------------|
|----------------------------------------|
|----------x-x-9~-------------x-x-12-----|
|-x-x-8~---x-x-8~---x-x-11~---x-x-11-14~-|
|-x-x-7~---x-x-7~---x-x-10~---x-x-10-10~-|
|----------------------------------------|

Verse 2

|----------------------------------|
|----------------------------------|
|----------------------------------|
|-3-2--3-2-2-2--0-0-3-2--3-2-5-5-5-|
|-3-2--3-2-2-2--0-0-3-2--3-2-5-5-5-|
|-3-2--3-2-2-2--0-0-3-2--3-2-5-5-5-|
P.M..  .......  .......  .........

|----------------------------------------------------|
|----------------------------------------------------|
|----------------------------------------------------|
|-2~--------3-2----------------------3-2-------------|
|-2~-------------------------------------------------|
|-2~----3-2-----3-2-3-2-6-5-5-5--3-2-----3-2-3-2-6-5-|
P.M.    ... ... ...............  ... ... ...........

|---------------------------------------------------------------|
|---------------------------------------------------------------|
|---------------------------------------------------------------|
|-----3-2----------------------3-2------------3-2---------5-5-5-|
|---------------------------------------------------------5-5-5-|
|-3-2-----3-2-3-2-6-5-5-5--3-2-----6-5--0-3-2-----3-2-3-2-5-5-5-|
P.M.. ... ...............  ... ... ...

Bridge

|---------0--0-------0--0---|------0--------0-----|
|--------------0----------0-|---1~---1---3~---3---|
|---------------------------|---2~-------4~-----4-|
|-2~------------------------|---2~-------4~-------|
|-2~--------------3---------|-0--------2----------|
|-2~---2--------------------|---------------------|

Fill 2

|---------------------------|
|---------------------------|
|-4-4-4-4-4-4-4-4-4-4-4-4-4-|
|-4-4-4-4-4-4-4-4-4-4-4-4-4-|
|-2-2-2-2-2-2-2-2-2-2-2-2-2-|
|---------------------------|
P.M..............

This song has a lot of different parts to it so make sure you listen to the CD
before you start playing.ENJOY!!!!!
Comments