Disturbed - Awaken Chords & Tabs

 

Awaken Chords & Tabs

Disturbed Chords & Tabs

Version: 1 Type: Bass Tab 0 ratings
1 star 2 stars 3 stars 4 stars 5 stars
comments

Awaken Bass Tab

this song is awesome and i hope my tab is right

standard tuning (i think)

intro

|----------------------------------------------|
|----------------------------------------------|
|--------------------------------------------2-|  repeat as ness
|-3-2-7\5--3-2-3-2-3-0__0--3-2-7\5--3-2-3-2-3--|

verse

|--------------------------------|
|--------------------------------|
|--------------------------------| repeat as ness
|-0-3-2-7\5--0-3-2-7\5-7-5-7-5-5-|
                       s s s s s

chorus

|--------------------------|
|--------------------------|
|-0--------2----0--------2-|  repeat as ness
|----3-3-3---------3-3-3---|

break
[ Tab from: http://www.guitartabs.cc/tabs/d/disturbed/awaken_btab.html ]
|-----------------------------|
|-----------------------------|
|-----------------------------|   repeat as ness
|-0-0-0-0-3-0-0-0-0-3-0-0-0-5-|
  s s s s s s s s s s s s s s

pre verse

|-------------------|
|-------------------|
|-------------------|  repeat as ness
|-5p3-0-x-0-5p3-0-x-|


vocal & bass break

|------------------------------------------------------------------|
|------------------------------------------------------------------|   cont'd
|------------0-------2__-2---------2__-0__---2__-2---------2__-0---|_   below
|-0_____---0---2__-2-------3__-2__---------2-------3__-2__---------|

|---------------------------------|
|---------------------------------|
|-0-2-4__-4-2-0__-0-2-4__-4-2-0---|_
|---------------------------------|

chorus again

outro

|---------------------------------|
|---------------------------------|
|---------------------------------|  till end
|-5-5-5-5-5-5-5-5-5-5-5-5-5-5-5-5-|
  s s s s s s s s s s s s s s s s
Comments