Disturbed - Avarice Chords & Tabs

 

Avarice Chords & Tabs

Disturbed Chords & Tabs

Version: 3 Type: Tab 0 ratings
1 star 2 stars 3 stars 4 stars 5 stars
comments

Avarice Tab

   
Big help from Operator(CA) on the solo, little adjustments I made, here you go, enjoy!


h=hammer on
p=pull off
b=bend
~=vibrato
*=harmonic
/or\=slide
P.M.=palm mute

Avarice
Drop C

Intro:Play four times, bottom play four aswell.
D-------------------------------------------------|
A-------------------------------------------------|
F-------------------------------------------------|
C-------------------------------------------------|
G-5p22222223p222222223p222222225p222223p223p223p2-
C-------------------------------------------------

D-----------------------------------------------------------|
A-----------------------------------------------------------|
F-----------------------------------------------------------|
C-12p99999-10p999999-10p9999999-12p999999-10p99-10p99-10p99-|
G-12p99999-10p999999-10p9999999-12p999999-10p99-10p99-10p99-|
C-12p99999-10p999999-10p9999999-12p999999-10p99-10p99-10p99-|

Verse:Play the top only twice.
D------------------------------------|
A------------------------------------|
F------------------------------------|
C------------------------------------|
G-9-9-9--999--999-9-9-10p9-10p9-10p9-|
C-9-9-9--999--999-9-9-10p9-10p9-10p9-|
P.M....  ...  ... . . .. . .. . .. .

D---------------------------|
A---------------------------|
F---------------------------|
C-12-9-9--999--999--999-999-|
G-12-9-9--999--999--999-999-|
C-12-9-9--999--999--999-999-|

[ Tab from: http://www.guitartabs.cc/tabs/d/disturbed/avarice_tab_ver_3.html ]
Chorus
D---------------------------------------|
A---------------------------------------|
F---------------------------------------|
C-7--6--3--4-6--7--6--3--4--6-0-0-0-0-0-|
G-7--6--3--4-4--7--6--3--4--6-0-0-0-0-0-|
C-7--6--3--4-4--7--6--3--4--6-0-0-0-0-0-|
P.M.                          .........

Solo
D--------------------------------------------------------------------------|
A----------13-14-13----------13-14-13----------13-14-13----------13-14-13--|
F-14-13-14----------14-13-14----------14-13-14----------14-13-14-----------|
C--------------------------------------------------------------------------|
G--------------------------------------------------------------------------|
C--------------------------------------------------------------------------|

D--/14--12-----------------------------------------------|
A----------14-13-12b---11~12~----------------------------|
F----------------------------11~-9-----------------------|
C----------------------------------9b--8--9-9b--8--------|
G---------------------------------------------------9~~--|
C--------------------------------------------------------|

D-------------------------------------12-----12-14~~--|
A--------10-------12-------10------12----14-----------|
F--10-11----10-11----10-11----10-11-------------------|
C-----------------------------------------------------|
G-----------------------------------------------------|
C-----------------------------------------------------|


Tabbed by irishmatt1992, leave a comment for corrections or suggestions.
Comments