Disturbed - Asylum Chords & Tabs

 

Asylum Chords & Tabs

Disturbed Chords & Tabs

Version: 2 Type: Tab 0 ratings
1 star 2 stars 3 stars 4 stars 5 stars
comments

Asylum Tab

   
Great new single from Disturbed.  This tab should be very close although it may not be 
the same way as Donegan, we will see once they start playing it live.

Intro (with wah)
Eb: ------------8-7--------------------------------------------------|
Bb:------------------7--8-----------------------------------7--7--10-|
Gb: -----9----9-----------9--9---------------------------------------|
Db: ---------------------------9--9--10-9-10--10--9--9---------------|
Ab: --------------------------------------------------10-10----------|
Eb: -----------------------------------------------------------------|

Eb: -17-16----17-16----19----|
Bb: -------17-------17----17-|
Gb: -------------------------|
Db: -------------------------|
Ab: -------------------------|
Eb: -------------------------|

Main Riff
Eb: -----------------------------------------------------------------|
Bb: -----------------------------------------------------------------|
Gb: -9---------10----2-----3---------9----10-----2-----3-------------|
Db: -9---------10----2-----3-----8s5-9----10-----2-----3-----5-5-5-5-|
Ab: -7---------8-----0-----1-----8s5-7----8------0-----1-----5-5-5-5-|
Eb: ---0-0-0-0---0-0---0-0---0-0-6s3---0-0---0-0---0-0---0-0-3-3-3-3-|

Eb: -----------------------------------------------------------------|
Bb: -----------------------------------------------------------------|
Gb: -9---------10----2-----3---------9----10-----2-----3-----5-5-5-5-|
Db: -9---------10----2-----3-----8s5-9----10-----2-----3-----5-5-5-5-|
Ab: -7---------8-----0-----1-----8s5-7----8------0-----1-----3-3-3-3-|
Eb: ---0-0-0-0---0-0---0-0---0-0-6s3---0-0---0-0---0-0---0-0---------|

Pre chorus
Eb:
Bb:
Gb:
Db: -9--------|   (hard to tell on strumming but definitely has this chord)
Ab: -9--------|
Eb: -7--------|

Repeat Intro
Repeat Main Riff
Repeat Pre chorus
Chorus
Eb: -------------------------------------------------------------|
Bb: -------------------------------------------------------------|
Gb: -9------------------------------3-----2----------------------|
Db: -9-----------3--2---------------3-----2-----3--2-------------|
Ab: -7-----------3--2---------------1-----0-----3--2-------------|
Eb: ---0-0-0-0-0-1--0-0-0-0-0-000-0---0-0---0-0-1--0-000-0-0-000-|
[ Tab from: http://www.guitartabs.cc/tabs/d/disturbed/asylum_tab_ver_2.html ]
Eb: -------------------------------------------------------------|
Bb: -------------------------------------------------------------|
Gb: -9------------------------------3-----2----------------------|
Db: -9-----------3--2---------------3-----2-----3--2-----5--5--5-|
Ab: -7-----------3--2---------------1-----0-----3--2-----5--5--5-|
Eb: ---0-0-0-0-0-1--0-0-0-0-0-000-0---0-0---0-0-1--0-000-3--3--3-|

Eb: -------------------------------------------------------------|
Bb: -------------------------------------------------------------|
Gb: -9------------------------------3-----2----------------------|
Db: -9-----------3--2---------------3-----2-----3--2-------------|
Ab: -7-----------3--2---------------1-----0-----3--2-------------|
Eb: ---0-0-0-0-0-1--0-0-0-0-0-000-0---0-0---0-0-1--0-000-0-0-000-|

Eb: ------------------------------------------------------------|
Bb: ------------------------------------------------------------|
Gb: ------------------------------------------------------------|
Db: -7--7-x-x-7--7-x-x-7-7-7-7--10-9----9-10-9--9s7-------------|
Ab: -7--7-x-x-7--7-x-x-7-7-7-7-------10-------10---10-9-7-------|
Eb: -5--5-x-x-5--5-x-x-5-5-5-5-7--7-7--7-7----------------------|

Repeat Main Riff
Repeat Pre Chorus
Repeat Chorus
Bridge
Eb: -------------------------------------------------|
Bb: -------------------6-6-6-----------------------6-|
Gb: -------4-4-4-7-7-7---------------------4-4-4-7---|
Db: -2-2-2-------------------3-3-0-0-2-2-2-----------|
Ab: -------------------------------------------------|
Eb: -------------------------------------------------|

Eb: ------------------------------------------------|
Bb: -------------------6-6-6------------------------|
Gb: -------4-4-4-7-7-7---------------------4-4-4-7--|
Db: -2-2-2-------------------3-3-0-0-2-2-2----------|
Ab: ------------------------------------------------|
Eb: ------------------------------------------------|

Eb: ---------------------------------------------------|
Bb: ---------------------------------------------------|
Gb: -------4-4-4-7-7-7-1010101010-7-7-------4-4-4-7-10-|
Db: -2-2-2-4-4-4-7-7-7-1010101010-7-7-2-2-2-4-4-4-7-10-|
Ab: -2-2-2-2-2-2-5-5-5-8-8-8-8-8--5-5-2-2-2-2-2-2-5-8--|
Eb: -0-0-0----------------------------0-0-0------------|

Repeat Chorus
Outro (4x)

Eb: -------------------------------------------------------------------|
Bb: -------------------------------------------------------------------|
Gb: -9---------10----2-----3---------9---------------------------------|
Db: -9---------10----2-----3-----8s5-9-----------------10-9--9s7-------|
Ab: -7---------8-----0-----1-----8s5-7---------------------10---10-9-7-|
Eb: ---0-0-0-0---0-0---0-0---0-0-6s3---0-0-0-0-0-0-0-0-----------------|
Comments