Disturbed - Another Way To Die Chords & Tabs

 

Another Way To Die Chords & Tabs

Disturbed Chords & Tabs

Version: 1 Type: Bass Tab 0 ratings
1 star 2 stars 3 stars 4 stars 5 stars
comments

Another Way To Die Bass Tab

   
Disturbed - Another Way To Die
Tuning - A#/D#/G#/C#/F#
Tabbed by Raven

Used Guitar tab from: "Aweisti" for reference I had to
work out the solo and intro which took a bit. Basicly
the bass is playing exactly what the guitar is. I know
there are fill's that were missed but for the most part
it's all there and should be able to get a good start on
it from there.


Intro:
F#|--------------------------------------------------|
C#|--------------------------------------------------|
G#|-5---------5----------------------3---3---5---5---|6x's
D#|---8-9-8-3---3-5-8-9-12-8-9-8-3-3---3---3---5---1-|
A#|--------------------------------------------------|

Verse:
F#|------------------------------------------------------------|
C#|------------------------------------------------------------|
G#|----------------------------------------------5h8p5---------|
D#|-----------------------------1h4----------3h4------h4-1---1-|
A#|-4-3-33-33-333--3333-33-33-3-----33-33-33---------------3---|
[ Tab from: http://www.guitartabs.cc/tabs/d/disturbed/another_way_to_die_btab.html ]
F#|------------------------------------------------------------|
C#|------------------------------------------------------------|
G#|--------------5h6p5-----------------------------------------|2x's
D#|---0-0---h3h5-------h6--------------------------------------|
A#|-3------3---------------------------------------------------|

Chorus:
F#|-------------------------------------------------------------|
C#|-------------------------------------------------------------|
G#|-1-1-1-1-1-1-------------3-3-3-3-3-3-6-6-6-6-6-6-1-1-1-1-1-1-|
D#|-------------3-3-3-2-2-3-------------------------------------|
A#|-------------------------------------------------------------|

F#|-------------------------------------------------------------|
C#|-------------------------------------------------------------|
G#|-------------1-1-1-1-1-1-6-6-6-6-6-6-------------------------|
D#|-3-3-3-2-2-3-------------------------------------------------|
A#|-------------------------------------------------------------|

Verse

Chorus

Solo:"Play the intro" Not sure how many times
F#|--------------------------------------------------|
C#|--------------------------------------------------|
G#|-5---------5----------------------3---3---5---5---|
D#|---8-9-8-3---3-5-8-9-12-8-9-8-3-3---3---3---5---1-|
A#|--------------------------------------------------|

Chorus
Comments