Disturbed - A Welcome Burden Chords & Tabs

 

A Welcome Burden Chords & Tabs

Disturbed Chords & Tabs

Version: 1 Type: Tab 0 ratings
1 star 2 stars 3 stars 4 stars 5 stars
comments

A Welcome Burden Tab

   
Tabbed by:andres v
Email:nanokeeper@hotmail.com

Tuning:Db Ab Db Gb Bb Eb

|---------------------------------------------------------------------------|
|---------------------------------------------------------------------------|
|---------------------------------------------------------------------------|
|-34343---34343434343---353534343---34343-----1-3-1-3-----------------------|
|-34343---34343434343---353534343---34343-----1-3-1-3-----------------------|
|---------------------------------------------1-3-1-3-----------------------|

|---------------------------------------------------------------------------|
|---------------------------------------------------------------------------|
|---------------------------------------------------------------------------|
|-34343---34343434343---353534343---34343-----1-3-1-3-1-3-1-3---------------|
|-34343---34343434343---353534343---34343-----1-3-1-3-1-3-1-3--3~~~~~~~-----|
|---------------------------------------------1-3-1-3-1-3-1-3---------------|


verse
|---------------------------------------------------------------------------|
|---------------------------------------------------------------------------|
|---------------------------------------------------------------------------|
|-10-12-10---10-12-10---10-12-10---10-12-10---10-12-10---10-12-10-----------|
|---------------------------------------------------------------------------|
|---------------------------------------------------------------------------|
PM

[ Tab from: http://www.guitartabs.cc/tabs/d/disturbed/a_welcome_burden_tab.html ]
|---------------------------------------------------------------------------|
|---------------------------------------------------------------------------|
|---------------------------------------------------------------------------|
|---------------------------------------------------------------------------|
|-3-6-3-5--3635----3-6-3-5-3635----3-6-3-5-3635-----------------------------|
|-3-6-3-5--3635----3-6-3-5-3635----3-6-3-5-3635-----------------------------|

|---------------------------------------------------------------------------|
|---------------------------------------------------------------------------|
|---------------------------------------------------------------------------|
|-------------------------------------------------------------------------xx|
|-/-11-10--10--10-11-10--10--10-11-12-11---/11-10--10--10-11-10--10--10-11xx|
|-/-11-10--10--10-11-10--10--10-11---------/11-10--10--10-11-10--10--10-11xx|

|---------------------------------------------------------------------------|
|---------------------------------------------------------------------------|
|---------------------------------------------------------------------------|
|---------------------------------------------------------------------------|
|333333--666666-------------------------------------------------------------|
|333333--666666-------------------------------------------------------------|

|---------------------------------------------------------------------------|
|---------------------------------------------------------------------------|
|---------------------------------------------------------------------------|
|-------3--------3--------3--------3--------3--------3--------3--------3----|
|-------3--------3--------3--------3--------3--------3--------3--------3----|
|-0000-----0000-----0000-----0000-----0000-----0000-----0000-----0000-------|

|---------------------------------------------------------------------------|
|---------------------------------------------------------------------------|
|---------------------------------------------------------------------------|
|-34343-----34343----34343----34343----34343----34343---34343----34343------|
|-34343-----34343----34343----34343----34343----34343---34343----34343------|
|---------------------------------------------------------------------------|
Comments