Disturbed - A Welcome Burden Chords & Tabs

 

A Welcome Burden Chords & Tabs

Disturbed Chords & Tabs

Version: 1 Type: Bass Tab 0 ratings
1 star 2 stars 3 stars 4 stars 5 stars
comments

A Welcome Burden Bass Tab

Band- Disturbed
Song- A Welcome Burden

Chorus
|---------------------------------------------------------------|
|---------------------------------------------------------------|
|-3-4-3-----3-4-3---3-4-3-----4-6-4---3-4-3-----3-4-3-----------| 2x
|-------4-3-------4-------4-3-------6-------4-3-------4-1-3-1-3-|
|---------------------------------------------------------------|

Fill in
|---------|
|---------|
|---------|
|-1-3-1-3-|
|---------|

Chorus 2x

Fill in

Verse
|--------------------------|
|--------------------------|
|-2h3-33333-3-3/4-444-6666-| 12x
|--------------------------|
|--------------------------|

[ Tab from: http://www.guitartabs.cc/tabs/d/disturbed/a_welcome_burden_btab.html ]
PreChorus
|--------------------------------------------------------------------------------------------|
|--------------------------------------------------------------------------------------------|
|--------------------------------------------------------------------------------------------|
|-3635-36-35-3635-36-35-3635-36-35-3635-36-35---3635-36-5--3635-36-5--3635-36-5--3635-36-5---|
|--------------------------------------------------------------------------------------------|

Chorus 2x

Fill in

Verse 12x

PreChorus

Interluderiff 1
|----------------|
|----------------|
|----------------| 8x
|-00-0-0-00-0-00-|

Interluderiff 2
|----------|
|----------|
|----------|
|-3------5-|
|----------|

Interluderiff 1 4x

Interluderiff 2

Interludeending
|------|
|------|
|------|
|------| 8x
|-0000-|

Ending
|-----------|
|-----------|
|-3-4-3-----|
|-------4-3-| 8x
|-----------|
Comments