District Seven - One Last Song Chords & Tabs

 

One Last Song Chords & Tabs

District Seven Chords & Tabs

Version: 1 Type: Tab 0 ratings
1 star 2 stars 3 stars 4 stars 5 stars
comments

One Last Song Tab

   
---------------------------------------------------------------------------
			One last song - District seven
---------------------------------------------------------------------------

I dont know a lot about this band. It is not popular. All i know is that it
is a punkrock band. They have already released 2 albums called 
1)"To be continued" and
2)"One last chance". The song i tabbed is from the last one.
As i suppose, this group has appeared several years ago thats why they are still
unknown.
If u want to find out more about this band or listen to their songs, e-mail me.

Tabbed by: Mike
Email: airwolf_mihey@mail.ru

This is my first tab and i'm sure that it is correct. Anyway if u find any mistakes,
please, e-mail me.

Tuning:

First fingering is played 10 times:

e|--------------------------------------------------------------------------|
B|--------------------------------------------------------------------------|
G|-----0---------0--------0--------0----------------------------------------|
D|---2---2-----2---2----0---0----0---0--------------------------------------|     
A|-2---------3--------------------------------------------------------------|
E|--------------------3--------2--------------------------------------------|

Then chords 5 times:

"Things being like this..."

	G	F#	E	C

Play 2 times:
"Change my file, change my style..."
e|--------------------------------------------------------------------------|
B|--------------------------------------------------------------------------|
G|-------------5555---------------------------------------------------------|
D|-55--44--22--5555---------------------------------------------------------|
A|-53--44--22--3333---------------------------------------------------------|
E|-33--22--00---------------------------------------------------------------|
[ Tab from: http://www.guitartabs.cc/tabs/d/district_seven/one_last_song_tab.html ]
Then play this. Listen to the song first so u can work out the rhythm:
e|--------------------------------------------------------------------------|
B|--------------------------------------------------------------------------|
G|----------5---------------------------------------------------------------|
D|-5--4--2--5---------------------------------------------------------------|
A|-5--4--2--3---------------------------------------------------------------|
E|-3--2--0------------------------------------------------------------------|

After that first guitar plays solo:
"Goodnight....."
e|--------------------------------------------------------------------------|
B|---------------------------------------------------------------------12---|
G|-12-14-11-12-16-14-16-12-11-12-9-11-12-14-12-14-19-16-14-12-12-14-12----12|
D|--------------------------------------------------------------------------|
A|--------------------------------------------------------------------------|
E|--------------------------------------------------------------------------|

e|--------------------------------------------------------------------------|
B|-------------------12----12-13-12-10-8-12-10-12-8-7-8-5-7-7-8-------------|
G|-14-12-12-11-12-12----12--------------------------------------------------|
D|--------------------------------------------------------------------------|
A|--------------------------------------------------------------------------|
E|--------------------------------------------------------------------------|

Second guitar plays this. Again, listen to the song to get the rhythm:
e|--------------------------------------------------------------------------|
B|--------------------------------------------------------------------------|
G|--------------5-----------------------------------------------------------|
D|-5--12--9--5--5--12--2--4--5--7--5--10--12--9--2--12--10--12--------------|
A|-5--12--9--5--3--12--2--4--5--7--5--10--12--9--2--12--10--12--------------|
E|-3--10--7--3-----10--0--2--3--5--3--8---10--7--0--10--8---10--------------|

"I hate saying goodbye..."
e|--------------------------------------------------------------------------|
B|--------------------------------------------------------------------------|
G|----------5---------------------------------------------------------------|
D|-5--4--2--5---------------------------------------------------------------|
A|-5--4--2--3---------------------------------------------------------------|
E|-3--2--0------------------------------------------------------------------|

In the end just play the "G" chord few times.

Thats all. It is a punk song so it is pretty easy, but sounds great :)

| /  slide up
| \  slide down
| h  hammer-on
| p  pull-off
| ~  vibrato
| +  harmonic
| x  Mute note
===============================================================================
Comments