District Seven - All Time Low Chords & Tabs

 

All Time Low Chords & Tabs

District Seven Chords & Tabs

Version: 1 Type: Tab 0 ratings
1 star 2 stars 3 stars 4 stars 5 stars
comments

All Time Low Tab

   
-------------------------------------------------------------------------------
			     All time low - District seven
-------------------------------------------------------------------------------
Tabbed by: M!ke
Email: airwolf_mihey@mail.ru

This song is very easy. Good for beginners.

Tuning:

Listen to the song to get the rhythm:
e|---------------------------------------------------------------------------|
B|---------------------------------------------------------------------------|
G|--------6------5--------------5--------------5------5------5---------------|
D|-3------6-x10--5--------------5--------------5------5------5-x10-----------|
A|-3-x10--4------3333333--------3333333--------333----333----3---------------|
E|-1-------------------------------------------------------------------------|
p.m.              ******         ******         **     **

e|---------------------------------------------------------------------------|
B|---------------------------------------------------------------------------|
G|--------6------5--------------5--------------13-----12---------------------|
D|-3------6-x10--5--------------5--------------13-x5--12-x5------------------|
A|-3-x10--4------3-333333-------3333333--------11-----10---------------------|
E|-1-------------------------------------------------------------------------|
p.m.               ******        ******

When singing "Have you ever..."
e|---------------------------------------------------------------------------|
B|---------------------------------------------------------------------------|
G|--------6------------------------------------------------------------------|
D|-3------6-x10--6------5--------------5-------------------------------------|
A|-3-x10--4------6-x10--5--------------5-------------------------------------|
E|-1-------------4------3333333--------3333333-------------------------------|
p.m.                     ******         ******

e|---------------------------------------------------------------------------|
B|---------------------------------------------------------------------------|
G|--------6-----------------------6---------------------------6------8-------|
D|-3------6-x10--6------5-5-------6-x10--8-----3------6-------6-x10--8-------|
A|-3-x10--4------6-x10--5-5-------4------8x10--3-x10--6-------4------6-------|
E|-1-------------4------3-3--------------6-----1------4----------------------|

e|---------------------------------------------------------------------------|
B|---------------------------------------------------------------------------|
G|------------------------8--------------------------------------------------|
D|-3-----9--10-----6-5-6--8-x4-----------------------------------------------|  x3
A|-3-x3--9--10-x5--6-5-6--6--------------------------------------------------|
E|-1-----7--8------4-3-4-----------------------------------------------------|

e|---------------------------------------------------------------------------|
B|---------------------------------------------------------------------------|
G|---------------------------------------------------------------------------|
D|-3-----9--10-----6-5-6-----------------------------------------------------|
A|-3-x3--9--10-x5--6-5-6-----------------------------------------------------|
E|-1-----7--8------4-3-4-----------------------------------------------------|

"Looking in a mirror..."
e|---------------------------------------------------------------------------|
B|---------------------------------------------------------------------------|
G|----6----------------6-----------------------------------------------------|
D|-3--6--6--5---3------6-x10--6------5---5-----------------------------------|
A|-3--4--6--5---3-x10--4------6-x10--5---5-----------------------------------|
E|-1-----4--3---1-------------4------3---3-----------------------------------|

Then two guitar play:
[ Tab from: http://www.guitartabs.cc/tabs/d/district_seven/all_time_low_tab.html ]
Guitar 1:
e|---------------------------------------------------------------------------|
B|---------------------------------------------------------------------------|
G|---------------------------6-----------------------------------------------|
D|-6------8------3------6-6--6-x10-6-----13------12------8-------13-----12---|
A|-6-x10--8-x10--3-x10--6-6--4-----6-----13-x10--12-x10--10-x10--13-x20-12x10|
E|-4------6------1------4-4--------4-----11------10------10------11-----10---|

Guitar 2:
e|---------------------------------------------------------------------------|
B|---------------------------------------------------------------------------|
G|---------------------------13----------------------------------------------|
D|---------------------------13-x10------------------------------------------|
A|---------------------------11----------------------------------------------|
E|---------------------------------------------------------------------------|

Guitar1:
e|---------------------------------------------------------------------------|
B|---------------------------------------------------------------------------|
G|---------------------------------------------------------------------------|
D|-13-----12-----------------------------------------------------------------|
A|-13-x5--12-x5--------------------------------------------------------------|
E|-11-----10-----------------------------------------------------------------|

e|---------------------------------------------------------------------------|
B|---------------------------------------------------------------------------|
G|-------8-10----------------------------------------------------------------|
D|-3-----8-10-x3--3-----6----------------------------------------------------| x4
A|-3-x4--6-8------3-x4--6-x5-------------------------------------------------|
E|-1--------------1-----4----------------------------------------------------|

Play this few times:
e|---------------------------------------------------------------------------|
B|-----------------------------------13--------------------------------------|
G|-13---13---15---13-------13---13--------13---------------------------------|
D|---10---10---10---10-------10---10---10---10--------------------------3----|
A|----------------------------------------------------------------------3~---|
E|----------------------------------------------------------------------1----|

e|---------------------------------------------------------------------------|
B|---------------------------------------------------------------------------|
G|--------10----8--10-----6-5----8-------------------------------------------|
D|--------10-X5-8--10-X5--6-5-6--8-x3----------------------------------------| x4
A|--------8-----6--8------4-3-6--6-------------------------------------------|
E|----------------------------4----------------------------------------------|

e|---------------------------------------------------------------------------|
B|---------------------------------------------------------------------------|
G|---------------8--10-----6-5----8------------------------------------------|
D|---------3-----8--10-X5--6-5-6--8-x3---------------------------------------| x4
A|---------3-x5--6--8------4-3-6--6------------------------------------------|
E|---------1-------------------4---------------------------------------------|

e|---------------------------------------------------------------------------|
B|---------------------------------------------------------------------------|
G|---------------------------------------------------------------------------|
D|----3---------333--------333--------333------------------------------------|
A|----3-333333--333-333333-333-333333-333------------------------------------|
E|----1-111111--111-111111-111-111111-111------------------------------------|
p.m.    ******      ******     ******





| /  slide up
| \  slide down
| h  hammer-on
| p  pull-off
| ~  vibrato
| +  harmonic
| x  Mute note
===============================================================================
Comments