Distorted Dreams - Social Anarchy Chords & Tabs

 

Social Anarchy Chords & Tabs

Distorted Dreams Chords & Tabs

Version: 2 Type: Bass Tab 0 ratings
1 star 2 stars 3 stars 4 stars 5 stars
comments

Social Anarchy Bass Tab

   
H= Hammer

intro
G|---------------------------------------------------------------|
D|---------0h2-2-2-2h3h2-------2h3h2-----------------------------|
A|-0-0-0h4---------------3-3-3-----------------------------------| Play this 2 times
E|----------------------------------3-3-3------------------------|

[ Tab from: http://www.guitartabs.cc/tabs/d/distorted_dreams/social_anarchy_btab_ver_2.html ]
G|----------------------0-0-0------------------------------------|
D|--------0h2-2-2-2h3h2-------2h3h2------------------------------|
A|-0-0-0h4-------------------------------3-2-0-------------------|Play this the third time
E|---------------------------------3-3-3-------------------------|then go back to #1

G|-----------2-3-5-3-2-------------------------------------------|
D|-----2---3-------------2-3-------------------------------------|
A|-0-0---0-------------3-------2-3-2-0---------------------------|corus
E|---------------------------3-----------------------------------|
Comments