Distillers - The Hunger Chords & Tabs

 

The Hunger Chords & Tabs

Distillers Chords & Tabs

Version: 6 Type: Tab 0 ratings
1 star 2 stars 3 stars 4 stars 5 stars
comments

The Hunger Tab

   
Song : The hunger
artist : The distillers
Album : Coral Fang
tuning : standard EADGBE
tabbed by : hanah - stixndstones668


Intro/verse  ( played 6 times on the intro , Brody comes in on the 3rd time)

   Am            C                F                  B5
E---0-x-0-0-0---0-x-0-0-0-0---1-x-1-1-1-1-1--------------------------|
B---1-x-1-1-1---1-x-1-1-1-1---1-x-1-1-1-1-1--------------------------|
G---2-x-2-2-2---0-x-0-0-0-0---2-x-2-2-2-2-2---4-x-4-4-4-4------------|   x6
D---2-x-2-2-2---2-x-2-2-2-2---3-x-3-3-3-3-3---4-x-4-4-4-4------------|
A---0-x-0-0-0---3-x-3-3-3-3---0-x-0-0-0-0-0---2-x-2-2-2-2------------|
E--------------------------------------------------------------------|
    d   u d u   d   u d u d   d   u d u d u   d   u d u d

here, on the slight gap where the 'x's are mute the strings with your palm
then carry on with the strum pattern underneath the tab. This took me a
long time to get so try it without muting first if you don't quite get it.

d - down stroke
x - muted string
u - up stroke


CHORUS

    G5        E5      F5       E5       G5        E5      F5        E5
E-----------------------------------------------------------------------------|
B-----------------------------------------------------------------------------|
G-----------------------------------------------------------------------------|
D---5--5--5---2-2-2---3--3--3---2-2-2---5--5--5---2-2-2---3--3--3---2-2-2-----|    x2
A---5--5--5---2-2-2---3--3--3---2-2-2---5--5--5---2-2-2---3--3--3---2-2-2-----|
E---3--3--3---0-0-0---1--1--1---0-0-0---3--3--3---0-0-0---1--1--1---0-0-0-----|
    d  d  d   d d d   d  d  d   d d d


here , the G5 and the F5 are played 1 , 2 , 3 and the E5 is played 1,2,3
if you get what i meen , youl hav to listen to the song a few times before
you get it right.  The 'd's might help you at the bottom underneath the tab.


weird middle bit or interlude thing      *in the background another guitar
plays the verse again on an acoustic*

E-----------------------------------------------------------------------|
B-----------------------------------------------------------------------|
G--------0/2-------------------------------2\0--------------------------|
D--------0/2--0/2-----2-2/3--3--3\2-----2--2\0-2--5/7--7\5---5-5/7------|
A-------------0/2-----2-2/3--3--3\2-----2------2--5/7--7\5---5-5/7------|
E---0/5-----------------------------------------------------------------|


VERSE - played 6 times again


  Am              C               F                 B5
E-0-x-0-0-0---0-x-0-0-0-0---1-x-1-1-1-1-1-------------------|
B-1-x-1-1-1---1-x-1-1-1-1---1-x-1-1-1-1-1-------------------|
G-2-x-2-2-2---0-x-0-0-0-0---2-x-2-2-2-2-2---4-x-4-4-4-4-----|   x6
D-2-x-2-2-2---2-x-2-2-2-2---3-x-3-3-3-3-3---4-x-4-4-4-4-----|
A-0-x-0-0-0---3-x-3-3-3-3---0-x-0-0-0-0-0---2-x-2-2-2-2-----|
E-----------------------------------------------------------|

CHORUS    played 3 times and on fourth time of playing it play below

[ Tab from: http://www.guitartabs.cc/tabs/d/distillers/the_hunger_tab_ver_6.html ]
E----------------------------------------------------------------|
B----------------------------------------------------------------|
G----------------------------------------------------------------|
D---5--5--5---2-2-2---3--3--3---2-2-2-----5--5-5---2--2-2--------|
A---5--5--5---2-2-2---3--3--3---2-2-2-----5--5-5---2--2-2-----5--|
E---3--3--3---0-0-0---1--1--1---0-0-0-----3--3-3---0--0-0---0/7--|
                                          d  d d   d  d d

hopfully the 'd's at the bottom wil help you , ti kind of goes '1..2.3
if you get what i meen nd you mite havew to listen to the song a couple of
times as well before you get it.


VERSE  * only played twice this time *

SOLO           this is nearly 100 % correct, dnt bite me 4 it, ok.


E--------------------------------------------|
B--------------------------------------------|
G---3/5-5-4---4------------------------------|
D-----------7---5--5-6-7--7\6-6/7-7/9-9\7-7--| repeat this thn go to
A--------------------------------------------|    below
E--------------------------------------------|


E-------------------------------------------------------------------------|
B-------------------------------------------------------------------------|
G---3/5-5-4---4-5--7-7b(8)--5p4--5\2---3/5-5-4---4----777777777777777-----|
D-----------7----------------------------------7---5--555555555555555-----|
A-------------------------------------------------------------------------|
E-------------------------------------------------------------------------|

CHORUS * played 5 times and on 6th time of playin play below


E----------------------------|
B----------------------------|
G----------------------------|
D---5--5-5---2--2-2----------|
A---5--5-5---2--2-2-----5----|
E---3--3-3---0--0-0---0/7----|

BASS SOLO  * sry i havnt included it , i cnt remeba it , il update it wen i can
                remeba the solo. *

OUTRO    * this isnt 100 % correct again , play round wit it nd the strummin
              it sounds ok evn of it aint rite *


E---------------------------------------------------------------------------|
B---------------------------------------------------------------------------|
G---22222222----------------------------22222222----------------------------|
D---2222222222222222--------------------2222222222222222--------------------|
A-----------33333333333333333/99999999----------33333333333333333/99999999--|
E-------------------111111111/77777777------------------111111111/77777777--|

play above ^ til end of the song, you should wrk it out wen youv played it thru
a couple of times with the cd.   when brody says 'i miss you' slow the tempo down
and i finish with  E---
                   B---   you dnt have to if you fink it sounds rong, just my opinion
                   G---
                   d-2-
                   A-2-
                   E-0-

KEY

d- down stroke
u- up stroke
x- muted string
p- pull off
/- slide up
\- slide down
b(#)- bend note before 'b' to pitch of fret number in brackets

well there you a complete tab for the hunger , nealry all of it is 100 % correct
il put in the bass solo wen i can remember it.

this tab was tabbed by my very gd guitar teacher Chirs. I just put on bcos no1
seems 2 do distillers songs, annoys me .

ne questions, hee_poing_poke@hotmail.co.uk or msg me stixndstones668

enjoy : ) !
Comments