Distillers - The Hunger Chords & Tabs

 

The Hunger Chords & Tabs

Distillers Chords & Tabs

Version: 5 Type: Tab 0 ratings
1 star 2 stars 3 stars 4 stars 5 stars
comments

The Hunger Tab

INTRO/VERSE (Acoustic)

THE HUNGER - THE DISTILLERS


E----------------------------------------------------|        Play it two times as
B----------------------------------------------------|        Intro and four times
G-2-X-2-2--3-X-3-3-----------2-X-2-2-----------------|        during the verse.
D-2-X-2-2--3-X-3-3--1-X-1-1--4-X-4-4-----------------|
A-0-X-0-0--5-X-5-5--1-X-1-1--4-X-4-4-----------------|        All in all 6X.
E-------------------3-X-3-3--------------------------|


heres the text:

Holy eyes, I never know I'd beg down at your feet
Hold on tight, I never knew I'd know much more than this
Open skies, the wave of pain the scent like you is bliss
Hungry eyes, they stare at me I know, I know

Don't go!!!!


CHORUS (Distortion)

E-------------------------------------------|
B-------------------------------------------|
G-------------------------------------------|        x4
D-5-5-5-0-0-0-1-1-1-------------------------|
A-5-5-5-0-0-0-1-1-1-------------------------|
E-3-3-3-2-2-2-3-3-3-------------------------|

First Solo

E---------------------------------------------------------------------------|
B---------------------------------------------------------------------------|
G---------------------------------------------------------------------------|
D--5/7-7-7/5-5-5/3-3-3/2-2/7-5-5/7-7/5-5-5/7-7-7/12-12-5/7------------------|
A---------------------------------------------------------------------------|
E---------------------------------------------------------------------------|

VERSE
Play the Tab below four times again.


second verse:

Summertime, the taste of saint secrets of parfume mist
Console the mind, I take it in, the lips of pink I kiss
Lonely sky, the more you take, the more that I give in
Holy eyes, I never know, I know, I know

Don't go!!!


CHORUS
Play the Tab 8 times.


Chorus-Lyrics:

Hold onto the memory, it's all you got
I know you'll be there to soak up blood lost
Blood lost
Blood lost

Second-Solo:
[ Tab from: http://www.guitartabs.cc/tabs/d/distillers/the_hunger_tab_ver_5.html ]
E-----------------------------------------------------------------------------|
B-----------------------------------------------------------------------------|
G-----------------------------------------------------------------------------|
D-10--10-9-7-9---------------------------------------10/9-7-9-----------------|
A--------------10--10p8/12-12-11-11-12-12/14-12--------------10-10p8/12-12----|
E-----------------------------------------------------------------------------|

E--------------------------------------------------------------------------|
B--------------------------------------------------------------------------|
G--------------------------------------------------------------------------|
D-----------------------10-9-7-9-10-10/13#--10-9-10-7/----10-9-7-9---------|
A-11-11-12-12/14-12-------------------------------------------------10-----|
E--------------------------------------------------------------------------|

E--------------------------------------------------------------------------|
B--------------------------------------------------------------------------|
G--------------------------------------------------------------------------|
D--------------------------------------------------------------------------|
A--10p8-10p8-10p8-10p8-10p8-10p8-10p8-10p8---------------------------------|
E--------------------------------------------------------------------------|


Chorus again  (x12)

Don' Go!!!!!!!!


Hold on to the memory, It's all you got
I know, you'll be there
to soak up blood lost
Hold on to the memory, It's all you got
I know, you'll be there
to soak up blood lost
the lost
the lost

VERSE (Distortion)
E---------------------------------------------------------------------------|
B---------------------------------------------------------------------------|
G-2-2-2-2--5-5-5-5-----------4-4-4-4----------------------------------------|
D-2-2-2-2--5-5-5-5--3-3-3-3--4-4-4-4----------------------------------------|
A-0-0-0-0--3-3-3-3--3-3-3-3--2-2-2-2----------------------------------------|
E-------------------1-1-1-1-------------------------------------------------|

Play it the first time palm-muted and then just distorted.
Comments