Distillers - The Hunger Chords & Tabs

 

The Hunger Chords & Tabs

Distillers Chords & Tabs

Version: 3 Type: Tab 0 ratings
1 star 2 stars 3 stars 4 stars 5 stars
comments

The Hunger Tab

i haven't got the bit to play over the second verse but here it goes:

VERSE (Acoustic)
E------------------------------------------------------
B------------------------------------------------------
G-2-2-2-2--5-5-5-5-----------4-4-4-4-------------------
D-2-2-2-2--5-5-5-5--3-3-3-3--4-4-4-4-------------------
A-0-0-0-0--3-3-3-3--3-3-3-3--2-2-2-2-------------------
E-------------------1-1-1-1----------------------------


CHORUS  (Distortion)
E------------------------------------------------------
B------------------------------------------------------
G------------------------------------------------------
D-5-5-5-5-2-3-3-3-3-2-5-5-5-5-2-3-3-3-3-2--------------
A-5-5-5-5-2-3-3-3-3-2-5-5-5-5-2-3-3-3-3-2--------------
E-3-3-3-3-0-1-1-1-1-0-3-3-3-3-0-1-1-1-1-0--------------


SOLO  (Slight Distortion)
[ Tab from: http://www.guitartabs.cc/tabs/d/distillers/the_hunger_tab_ver_3.html ]
E------------------------------------------------------
B------------------------------------------------------
G-0s5-5-4-2-4-0-0h1h2-2-1-2-4--0s5-5-4-2-4-0-0h1h2-2-1-
D------------------------------------------------------
A------------------------------------------------------
E------------------------------------------------------

E-------------------------------------------------------------
B-------------------------------------------------------------
G-2-4--0s5-5-4-2-4-5~~~-pbr7-5p4--0s5-5-4-2-4-0-0h1h2-2-1-2-4-
D-------------------------------------------------------------
A-------------------------------------------------------------
E-------------------------------------------------------------


Order:

verse
chorus
verse
chorus
verse
solo
chorus
verse (distorted)

i know this is right so don't say it isn't
Comments